Misc - Exercises For Begginers Chords & Tabs

 

Exercises For Begginers Chords & Tabs

Misc Chords & Tabs

Version: 1 Type: Tab 0 ratings
1 star 2 stars 3 stars 4 stars 5 stars
comments

Exercises For Begginers Tab

   
E||-----------------------|-------0--------------|-----------------0-----||
B||-----------------------|--0-------------------|------------0----------||
G||*-----------------0----|----------------------|-------0--------------*||
D||*------------0---------|----------------------|--0-------------------*||
A||--------0--------------|-----------------0----|-----------------------||
E||---0-------------------|------------0---------|-----------------------||


                                                                      
-----------------------|----------------------|----------------------|
-----------------------|----------------------|------------0----0----|
*----------------------|------------0----0----|-------0--------------|
*------------0----0----|-------0--------------|--0-------------------|
--------0--------------|--0-------------------|----------------------|
---0-------------------|----------------------|----------------------|


                                                                       
------------0----0-----||-----------------------|---------------------|
-------0---------------||-----------------------|---------------------|
--0-------------------*||*----------------------|---------------------|
----------------------*||*----------------------|--0----0----0--------|
-----------------------||--------0---------0----|---------------------|
-----------------------||---0---------0---------|---------------------|


                                                                    
-----------------0----|-------0-------------|--0----0--------------|
------------0---------|--0---------0--------|------------0----0----|
--0----0--------------|---------------------|----------------------|
----------------------|---------------------|----------------------|
----------------------|---------------------|----------------------|
----------------------|---------------------|----------------------|


                                                                     
---------------------|----------------------|----------------------||
---------------------|----------------------|----------------------||
--0----0----0--------|----------------------|---------------------*||
---------------------|--0----0--------------|---------------------*||
---------------------|------------0----0----|-------0--------------||
---------------------|----------------------|--0---------0---------||


                                                                     
----------------------|----------------------|----------------------|
----------------------|--0----1----3----3----|----------------------|
--0----2----0----2----|----------------------|--0----2----0----2----|
----------------------|----------------------|----------------------|
----------------------|----------------------|----------------------|
----------------------|----------------------|----------------------|


                                                                    
---------------------|----------------------|----------------------|
--0----1----3--------|--3----3----1----0----|--1----0--------------|
---------------------|----------------------|------------2----0----|
---------------------|----------------------|----------------------|
---------------------|----------------------|----------------------|
---------------------|----------------------|----------------------|


                                                                
----------------------|---------------------|------------------|
--3----3----1----0----|--0------------------|------------------|
----------------------|-------2----0--------|------------------|
----------------------|---------------------|------------------|
----------------------|---------------------|------------------|
----------------------|---------------------|------------------|


                                                                   
----------------------|---------------------|---------------------|
-----------------0----|--1----1----1--------|--3----3----3--------|
--0----0----2---------|---------------------|---------------------|
----------------------|---------------------|---------------------|
----------------------|---------------------|---------------------|
----------------------|---------------------|---------------------|


                                                                    
--0----0----0--------|--1----1----0---------|--3----3----1----1----|
---------------------|-----------------3----|----------------------|
---------------------|----------------------|----------------------|
---------------------|----------------------|----------------------|
---------------------|----------------------|----------------------|
---------------------|----------------------|----------------------|


                                                                
--0----0--------------|---------------------|------------------|
------------3----3----|--1----1----1--------|------------------|
----------------------|---------------------|------------------|
----------------------|---------------------|------------------|
----------------------|---------------------|------------------|
----------------------|---------------------|------------------|


                                                                     
----------------------|----------------------|----------------------|
----------------------|----------------------|----------------------|
----------------------|----------------------|----------------------|
----------------------|----------------------|----------------------|
----------------------|------------0----0----|--2----2----0----2----|
--0----0----1----1----|--3----3--------------|----------------------|


                                                                   
---------------------|----------------------|---------------------|
---------------------|----------------------|---------------------|
---------------------|----------------------|---------------------|
---------------------|------------0----0----|--2----3----3--------|
--3----3----3--------|--3----3--------------|---------------------|
---------------------|----------------------|---------------------|


                                                                
----------------------|---------------------|------------------|
----------------------|---------------------|------------------|
----------------------|---------------------|------------------|
--2----2----0----0----|---------------------|------------------|
----------------------|--3----0----3--------|------------------|
----------------------|---------------------|------------------|

[ Tab from: http://www.guitartabs.cc/tabs/m/misc/exercises_for_begginers_tab.html ]
                                                                     
----------------------|----------------------|----------------------|
----------------------|----------------------|----------------------|
--5----5----5----5----|--6----6----6----6----|--7----7----7----7----|
----------------------|----------------------|----------------------|
----------------------|----------------------|----------------------|
----------------------|----------------------|----------------------|


                                                                     
----------------------|----------------------|----------------------|
----------------------|--5----5----5----5----|--6----6----6----6----|
--8----8----8----8----|----------------------|----------------------|
----------------------|----------------------|----------------------|
----------------------|----------------------|----------------------|
----------------------|----------------------|----------------------|


                                                                     
----------------------|----------------------|--5----5----5----5----|
--7----7----7----7----|--8----8----8----8----|----------------------|
----------------------|----------------------|----------------------|
----------------------|----------------------|----------------------|
----------------------|----------------------|----------------------|
----------------------|----------------------|----------------------|


                                                                     
--6----6----6----6----|--7----7----7----7----|--8----8----8----8----|
----------------------|----------------------|----------------------|
----------------------|----------------------|----------------------|
----------------------|----------------------|----------------------|
----------------------|----------------------|----------------------|
----------------------|----------------------|----------------------|


                                                                       
------------------|------------|------------|------------|------------|
------------------|------------|------------|--0---------|-------0----|
------------------|--0----0----|--0----2----|-------2----|--0---------|
------------------|------------|------------|------------|------------|
------------------|------------|------------|------------|------------|
------------------|------------|------------|------------|------------|


                                                                       
------------|-----------|----------|----------------|-----------------|
------------|-----------|----------|----------------|------------1----|
--2----2----|--0--------|----------|----------0--0--|--2----0---------|
------------|-----------|----------|----------------|-----------------|
------------|-----------|----------|----------------|-----------------|
------------|-----------|----------|----------------|-----------------|


                                                                        
-----------------|-----------------|-----------------|--3----0---------|
--0--------------|------------3----|--1--------------|------------1----|
-----------0--0--|--2----0---------|-----------0--0--|-----------------|
-----------------|-----------------|-----------------|-----------------|
-----------------|-----------------|-----------------|-----------------|
-----------------|-----------------|-----------------|-----------------|


                                                                    
------------1--1--|--0--------------|---------------|--------------|
--0---------------|-------1----3----|--1~-----------|--------------|
-------2----------|-----------------|---------------|--------------|
------------------|-----------------|---------------|--------------|
------------------|-----------------|---------------|--------------|
------------------|-----------------|---------------|--------------|


                                                                    
----------------------|----------------------|---------------------|
----------------------|----------------------|---------------------|
----------------------|----------------------|------------0--------|
-------0----2---------|-------0----2---------|--2----3-------------|
--3--------------3----|--3--------------3----|---------------------|
----------------------|----------------------|---------------------|


                                                                        
---------------------|------------------------|------------------------|
---------------------|------------------------|------------------------|
------------0--------|--0--2--0---------------|--0--2--0---------------|
--2----3-------------|-----------3--2---------|-----------3--2---------|
---------------------|-------------------3----|-------------------3----|
---------------------|------------------------|------------------------|


                                                               
---------------------|---------------------|------------------|
---------------------|---------------------|------------------|
---------------------|---------------------|------------------|
--0------------------|--0------------------|------------------|
------------3--------|------------3--------|------------------|
-------3-------------|-------3-------------|------------------|


                                                                      
--------------|------------|--------------|------------|--0-------0--|
--------------|--0----0----|--------------|--0----0----|-------3-----|
-----------0--|------------|-----------0--|------------|-------------|
--2--2--2-----|------------|--2--2--2-----|------------|-------------|
--------------|------------|--------------|------------|-------------|
--------------|------------|--------------|------------|-------------|


                                                                     
-------------|-------------|------------|--0-------0--|-------------|
--3--0-------|-------------|--0----0----|-------3-----|--3--0-------|
--------0----|--2----0--2--|------------|-------------|--------0----|
-------------|-------------|------------|-------------|-------------|
-------------|-------------|------------|-------------|-------------|
-------------|-------------|------------|-------------|-------------|


                                         C    C       Am   Am    
-------------|-------------|----------|--0----0----|--0----0----|
-------------|--0----------|----------|--1----1----|--1----1----|
--2----0--2--|-----0-------|----------|--0----0----|--2----2----|
-------------|--------2----|----------|--2----2----|--2----2----|
-------------|-------------|----------|--3----3----|--0----0----|
-------------|-------------|----------|------------|------------|


  Dm   Dm      G7   G7                
--1----1----|--1----1----|----------||
--3----3----|--0----0----|----------||
--2----2----|--0----0----|----------||
--0----0----|--0----0----|----------||
------------|--2----2----|----------||
------------|--3----3----|----------||
Comments