Misc - Exercise To Increase Speed Chords & Tabs

 

Exercise To Increase Speed Chords & Tabs

Misc Chords & Tabs

Version: 1 Type: Tab 0 ratings
1 star 2 stars 3 stars 4 stars 5 stars
comments

Exercise To Increase Speed Tab

You have to start low and then go faster and faster..

E||--15-0-0-0-14-0-0-0-12-0-0-0-11-0-0-0-|
B||--------------------------------------|
G||--------------------------------------|
D||--------------------------------------|
A||--------------------------------------|
E||--------------------------------------|


                                                                        
--12-0-0-0-11-0-0-0-8-0-0-0-7-0-0-0-|--5-0-0-0-3-0-0-0-2-0-0-0-3-0-0-0-|
------------------------------------|----------------------------------|
------------------------------------|----------------------------------|
------------------------------------|----------------------------------|
------------------------------------|----------------------------------|
------------------------------------|----------------------------------|


                                                                          
--0-0-0-0-0-0-0-0-0-0-0-0-0-0-0-0-|--------------------------------------|
----------------------------------|--15-0-0-0-14-0-0-0-12-0-0-0-11-0-0-0-|
----------------------------------|--------------------------------------|
----------------------------------|--------------------------------------|
----------------------------------|--------------------------------------|
----------------------------------|--------------------------------------|


                                                                        
------------------------------------|----------------------------------|
--12-0-0-0-11-0-0-0-8-0-0-0-7-0-0-0-|--5-0-0-0-3-0-0-0-2-0-0-0-3-0-0-0-|
------------------------------------|----------------------------------|
------------------------------------|----------------------------------|
------------------------------------|----------------------------------|
------------------------------------|----------------------------------|


                                                                          
----------------------------------|--------------------------------------|
--0-0-0-0-0-0-0-0-0-0-0-0-0-0-0-0-|--------------------------------------|
----------------------------------|--15-0-0-0-14-0-0-0-12-0-0-0-11-0-0-0-|
----------------------------------|--------------------------------------|
----------------------------------|--------------------------------------|
----------------------------------|--------------------------------------|


                                                                        
------------------------------------|----------------------------------|
------------------------------------|----------------------------------|
--12-0-0-0-11-0-0-0-8-0-0-0-7-0-0-0-|--5-0-0-0-3-0-0-0-2-0-0-0-3-0-0-0-|
------------------------------------|----------------------------------|
------------------------------------|----------------------------------|
------------------------------------|----------------------------------|


                                                                          
----------------------------------|--------------------------------------|
----------------------------------|--------------------------------------|
--0-0-0-0-0-0-0-0-0-0-0-0-0-0-0-0-|--------------------------------------|
----------------------------------|--15-0-0-0-14-0-0-0-12-0-0-0-11-0-0-0-|
----------------------------------|--------------------------------------|
----------------------------------|--------------------------------------|


                                                                        
------------------------------------|----------------------------------|
------------------------------------|----------------------------------|
------------------------------------|----------------------------------|
--12-0-0-0-11-0-0-0-8-0-0-0-7-0-0-0-|--5-0-0-0-3-0-0-0-2-0-0-0-3-0-0-0-|
------------------------------------|----------------------------------|
------------------------------------|----------------------------------|

[ Tab from: http://www.guitartabs.cc/tabs/m/misc/exercise_to_increase_speed_tab.html ]
                                                                          
----------------------------------|--------------------------------------|
----------------------------------|--------------------------------------|
----------------------------------|--------------------------------------|
--0-0-0-0-0-0-0-0-0-0-0-0-0-0-0-0-|--------------------------------------|
----------------------------------|--15-0-0-0-14-0-0-0-12-0-0-0-11-0-0-0-|
----------------------------------|--------------------------------------|


                                                                        
------------------------------------|----------------------------------|
------------------------------------|----------------------------------|
------------------------------------|----------------------------------|
------------------------------------|----------------------------------|
--12-0-0-0-11-0-0-0-8-0-0-0-7-0-0-0-|--5-0-0-0-3-0-0-0-2-0-0-0-3-0-0-0-|
------------------------------------|----------------------------------|


                                                                          
----------------------------------|--------------------------------------|
----------------------------------|--------------------------------------|
----------------------------------|--------------------------------------|
----------------------------------|--------------------------------------|
--0-0-0-0-0-0-0-0-0-0-0-0-0-0-0-0-|--------------------------------------|
----------------------------------|--15-0-0-0-14-0-0-0-12-0-0-0-11-0-0-0-|


                                                                        
------------------------------------|----------------------------------|
------------------------------------|----------------------------------|
------------------------------------|----------------------------------|
------------------------------------|----------------------------------|
------------------------------------|----------------------------------|
--12-0-0-0-11-0-0-0-8-0-0-0-7-0-0-0-|--5-0-0-0-3-0-0-0-2-0-0-0-3-0-0-0-|


                                                      
----------------------------------|------------------|
----------------------------------|------------------|
----------------------------------|------------------|
----------------------------------|------------------|
----------------------------------|------------------|
--0-0-0-0-0-0-0-0-0-0-0-0-0-0-0-0-|------------------|


                                                                      
----------------------------------|----------1-2-3-4-2-3-4-5---------|
----------------------------------|--1-2-3-4-----------------2-3-4-5-|
--------------------------1-2-3-4-|----------------------------------|
------------------1-2-3-4---------|----------------------------------|
----------1-2-3-4-----------------|----------------------------------|
--1-2-3-4-------------------------|----------------------------------|


                                                                      
----------------------------------|----------------------------------|
----------------------------------|----------------------------------|
--2-3-4-5-------------------------|--------------------------3-4-5-6-|
----------2-3-4-5-----------------|------------------3-4-5-6---------|
------------------2-3-4-5---------|----------3-4-5-6-----------------|
--------------------------2-3-4-5-|--3-4-5-6-------------------------|


                                                                      
----------3-4-5-6-4-5-6-7---------|----------------------------------|
--3-4-5-6-----------------4-5-6-7-|----------------------------------|
----------------------------------|--4-5-6-7-------------------------|
----------------------------------|----------4-5-6-7-----------------|
----------------------------------|------------------4-5-6-7---------|
----------------------------------|--------------------------4-5-6-7-|
Comments