Misc - Every Major Scale Chords & Tabs

 

Every Major Scale Chords & Tabs

Misc Chords & Tabs

Version: 1 Type: Tab 2 ratings
1 star 2 stars 3 stars 4 stars 5 stars
comments

Every Major Scale Tab

   
this is the first part of a seven part installment so stay 
on the look out for the rest of these. 
all of these are based around a bottom E note, but by adjusting the 
position on the neck according to the root note. you'll get the idea.
i will show you the scale in several positions on the neck in each it 
is played in a differnet way.
if you would like any in advance e-mail me @ barry _fallon2000@hotmail.com
 E major scale

first position-
                                                                        E
e)-----------------------------2-4-5--5-4-2-----------------------------0--
B)-----------------------2-4-5--------------5-4-2-----------------------0--
G)-----------------1-2-4--------------------------4-2-1-----------------1--
D)-----------1-2-4--------------------------------------4-2-1-----------2--
A)-------2-4--------------------------------------------------4-2-------2--
E)-2-4-5----------------------------------------------------------5-4-2-0--

you'll see i put a little strum at the end this is so u will start to
relate the soud og the scale to the note chord its in.
[ Tab from: http://www.guitartabs.cc/tabs/m/misc/every_major_scale_tab.html ]
second position-
                                                                        E
e)-----------------------------4-5-7--7-5-4-----------------------------4--
B)-----------------------4-5-7--------------7-5-4-----------------------5--
G)-------------------4-6--------------------------6-4-------------------4--
D)-------------4-6-7----------------------------------7-6-4-------------6--
A)-------4-6-7----------------------------------------------7-6-4-------7--
E)-4-5-7----------------------------------------------------------7-5-4-4--

third position-           
                                                                        E    
e)------------------------------7-9--9-6--------------------------------7---
B)-----------------------7-9-10----------10-9-7-------------------------9---
G)-----------------6-8-9------------------------9-8-6-------------------9---
D)-----------6-7-9------------------------------------9-7-6-------------9---
A)-----6-7-9------------------------------------------------9-7-6-------7---
E)-7-9------------------------------------------------------------9-7---7---

thats should be enough of those if you need any higher up the neck mail me.

blues scale 

E major 

e)---------------------------0--3---3--0----------------------------0-------
B)----------------------0--3-------------3--0-----------------------0-------
G)-----------------0--2-----------------------2--0------------------1-------
D)------------0--2---------------------------------2--0-------------2-------
A)-------0--2-------------------------------------------2--0--------2-------
E)--0--3-----------------------------------------------------2--0---0-------

only one position for this one that should be enough.
 enjoy!
Comments