Misc - Elec Mans Theme Megaman Chords & Tabs

 

Elec Mans Theme Megaman Chords & Tabs

Misc Chords & Tabs

Version: 1 Type: Tab 0 ratings
1 star 2 stars 3 stars 4 stars 5 stars
comments

Elec Mans Theme Megaman Tab

Song: Megaman : Elec Man's Theme
Tabbed By: Tim Barr
MX ID: SpADeD
Date: 1/28/04
                                                   
E||---------------------12-----|
B||---------------------11-0---|
G||----------------------------|
D||------------------1---------|
A||----------------------------|
E||-----------2--1-0-----------|


                                                                    
--------------11-----------------|---------------11----------------|
--0-------0------12------10------|------------------12------9------|
------4-------------11-9---------|---------------------11-9--------|
-----------------------------9---|---9---9---9-----------------6---|
---------------------------------|---------------------------------|
---------------------------------|---------------------------------|


                                                   
-----------------------|-----------------14-------|
-----------------------|----------------------0---|
-----------------------|-------------1------------|
---6---6---6-----5-----|------4---4----4----------|
-----------------------|--------------------------|
-----------------------|--------------------------|


                                                                     
---------------11-----------------|----------------11---------------|
---0---0---0------12------10------|-------------------12------9-----|
---------------------11-9---------|----------------------11-9-------|
------------------------------9---|----9---9---9-----------------6--|
----------------------------------|---------------------------------|
----------------------------------|---------------------------------|


                                                
----------------------|---------2------2-2-2-2-|
----------------------|------------------------|
----------------------|------------------------|
---6---6---6-----5----|-------4----------------|
----------------------|------------------------|
----------------------|------------------------|

[ Tab from: http://www.guitartabs.cc/tabs/m/misc/elec_mans_theme_megaman_tab.html ]
                                                                      
--2-2-2-2-0-0-0-0-0-0-0-0-2-2-2-2-|--2-2-2-2-5-5-5-5-5-5-5-5-5-5-5-5-|
----------------------------------|----------------------------------|
----------------------------------|----------------------------------|
----------------------------------|----------------------------------|
----------------------------------|----------------------------------|
----------------------------------|----------------------------------|


                                                                         
--5-5-5-5-3-3-3-3-3-3-3-3-1-1-1-1-|--1-1-1-1-7-7-7-7--7-7--7-7----------|
----------------------------------|----------------------------------0--|
----------------------------------|-------------------------------------|
----------------------------------|-------------------------------------|
----------------------------------|-------------------------------6-----|
----------------------------------|-------------------------------------|


                                                                   
---------------11----------------|---------------11---------------|
---0---0---0------12------10-----|------------------12------9-----|
---------------------11-9--------|---------------------11-9-------|
------------------------------9--|---9---9---9-----------------6--|
---------------------------------|--------------------------------|
---------------------------------|--------------------------------|


                                                 
----------------------|-----------------14------|
----------------------|----------------------0--|
----------------------|-------------1-----------|
---6---6---6-----5----|------4---4----4---------|
----------------------|-------------------------|
----------------------|-------------------------|


                                                                   
---------------11----------------|---------------11---------------|
---0---0---0------12------10-----|------------------12------9-----|
---------------------11-9--------|---------------------11-9-------|
------------------------------9--|---9---9---9-----------------6--|
---------------------------------|--------------------------------|
---------------------------------|--------------------------------|


                                             
----------------------|---------2----------||
----------------------|--------------------||
----------------------|--------------------||
---6---6---6-----5----|-------4------------||
----------------------|--------------------||
----------------------|--------------------||


Comments