Misc - Ejercicio Chords & Tabs

 

Ejercicio Chords & Tabs

Misc Chords & Tabs

Version: 1 Type: Tab 0 ratings
1 star 2 stars 3 stars 4 stars 5 stars
comments

Ejercicio Tab

Ejercicio

Great song quite fast tempo (This is just one of the many versions of it)


----------0-------3----3------2--2-------------2--------2---2-----0-0---------------------------
--------0---------------------1--1-----------0--------------------0-0---------------------------
------0--------------------------2---------2------------------------0---------------------------
---2-----------------------------------------------1--------------------------------------------
-----------------------0-----------------2------------------------------------------------------
--------------0---------------------------------------------0-----------------------------------



--------------7------------------5-----------------3----------------2---------------------------
------------0---0------0-------0---0-----0------0----0-----0--------0---------------------------
------------------------------------------------------------------------------------------------
------5-------------5-------4---------4-------2---------2-------1-------------------------------
-------------------------------------------------------------------------2----------------------
------------------------------------------------------------------------------------------------



----------0-------3----3------2--2-------------2--------2---2-----0-0---------------------------
--------0---------------------1--1-----------0--------------------0-0---------------------------
------0--------------------------2---------2------------------------0---------------------------
---2-----------------------------------------------1--------------------------------------------
-----------------------0-----------------2------------------------------------------------------
--------------0---------------------------------------------0-----------------------------------


[ Tab from: http://www.guitartabs.cc/tabs/m/misc/ejercicio_tab.html ]
----------0--------------2------0---------0---------0-------------------------------------------
--------0--------------------------------------4------------------------------------------------
------0------------------2------0---------0---------2-------------------------------------------
-----------------------------------------------4----0-------------------------------------------
--------------------------------1----2----------------------------------------------------------
--0------------0--2/3------------------------------------0--------------------------------------



------------------------------------------------------------------------------------------------
--------0-----0-----0-----0-----0----0----0-----0-----0-----0-----0-----0-----0-----------------
------------------------------------------------------------------------------------------------
-----------1-----4-----2-----5----2----4-----7-----4-----5------4----2-----1--------------------
----2-------------------------------------------------------------------------------------------
------------------------------------------------------------------------------------------------



------------------------------------------------------------------------------------------------
--------0-----0-----0-----0-----0----0-----------------1---------------0------------------------
--------------------------------------------------------------0-----2---------------------------
-----------1-----4-----2-----5----2-------------------------------------------------------------
----2---------------------------------------------3---------------0----2------------------------
-----------------------------------------------------------3------------------------------------



----------0-------3----3------2--2-------------2--------2---2-----0-0---------------------------
--------0---------------------1--1-----------0--------------------0-0---------------------------
------0--------------------------2---------2------------------------0---------------------------
---2-----------------------------------------------1--------------------------------------------
-----------------------0-----------------2------------------------------------------------------
--------------0---------------------------------------------0-----------------------------------



----------0--------------2------0---------0---------0-------------------------------------------
--------0--------------------------------------4------------------------------------------------
------0------------------2------0---------0---------2-------------------------------------------
-----------------------------------------------4----0-------------------------------------------
--------------------------------1----2----------------------------------------------------------
--0------------0--2/3------------------------------------0--------------------------------------



Comments