Misc - Eastenders Chords & Tabs

 

Eastenders Chords & Tabs

Misc Chords & Tabs

Version: 1 Type: Tab 1 rating
1 star 2 stars 3 stars 4 stars 5 stars
comments

Eastenders Tab

Eastenders

e-----------------------0--------------------------------------------------
b---------0---1----3---------1-----------1---0-----------------------------
g---0--2------------------------------------------2---0----0---------------
d--------------------------------------------------------------0---0-------
a--------------------------------------------------------------------------
e--------------------------------------------------------------------------
[ Tab from: http://www.guitartabs.cc/tabs/m/misc/eastenders_tab.html ]
e--------------------------------------------------------------------------
b---------3-------------------0-----1--------------------------0----1----3-
g---0------------0------2----------------2-----0----0----------------------
d---------------------------------------------------------0----------------
a--------------------------------------------------------------------------
e--------------------------------------------------------------------------

e--------------------------------------------------------------------------
b----0----------------------------------------------------------------------
g----------2-----0-----------------------------------------------------------
d--------------------------------------------------------------------------
a--------------------------------------------------------------------------
e--------------------------------------------------------------------------
Comments