Misc - Dueling Guitars Chords & Tabs

 

Dueling Guitars Chords & Tabs

Misc Chords & Tabs

Version: 1 Type: Tab 1 rating
1 star 2 stars 3 stars 4 stars 5 stars
comments

Dueling Guitars Tab

This is the first half of the song its pretty close...email me if u have any corrections
Ironmatt67@hotmail.com







Guitar 1                    Guitar 2                Guitar 1
e-------------------------|-----------------------|-----------------------|
b-------------------------|-----------------------|---------------1--3----|
g-------------------------|-----------------------|---0-0-0--2--4---------|
d--------------1--3--1--0-|-------------1--3--1-0-|-----------------------|
a--0-0-0--2--4------------|-0-0-0--2--4-----------|-----------------------|
e-------------------------|-----------------------|-----------------------|
[ Tab from: http://www.guitartabs.cc/tabs/m/misc/dueling_guitars_tab.html ]
         Guitar 2                   Guitar 1                Guitar 2
e-------|-------------------------|-----------------------|---------------|
b--1--0-|--------------1--3--1--0-|-----------------------|---------------|
g-------|-0-0-0--2--4-------------|------------1--3--1--0-|---------------|
d-------|-------------------------|-0-0-0--2--4-----------|--0-0-0--2--4--|
a-------|-------------------------|-----------------------|---------------|
e-------|-------------------------|-----------------------|---------------|

Guitar 2
e--------------------|
b--------------------|
g--1--3--1--0--------|
d--------------------|
a--------------------|
e--------------------|

Guitar 1           Guitar 2
e--2-2-2-3--2--|--2-2-2-3--2--|
b--3-3-3-3--3--|--3-3-3-3--3--|              
g--2-2-2-2--2--|--2-2-2-2--2--|             
d--------------|--------------|              
a--------------|--------------|
e--------------|--------------|

Guitar 1                 Guitar 2    (repeat 2 times)
e----------------------|-------------------------------------------|
b----------------------|-------------------------------------------|
g---0-1-3-0-1----------|---0-1-3-0-1-------------------------------|
d-------------2-4-0-2--|--------------2-4-0-2----------------------|
a----------------------|-------------------------------------------|
e----------------------|-------------------------------------------|
Comments