Misc - Donkey Kong Chords & Tabs

 

Donkey Kong Chords & Tabs

Misc Chords & Tabs

Version: 1 Type: Tab 1 rating
1 star 2 stars 3 stars 4 stars 5 stars
comments

Donkey Kong Tab

Song: Donkey Kong
Band: N/A (Atari, NES)
Tabbed by: SpRiNgWaFfLe [springwaffle@comcast.net]

Main Title:

e-----5r---0-3-1----------6r---3-5-3------
b-1-1------------3r---3-3------------5r---
g-----------------------------------------
d-----------------------------------------
a-----------------------------------------
e-----------------------------------------
[ Tab from: http://www.guitartabs.cc/tabs/m/misc/donkey_kong_tab.html ]
e-0-0-8r---5-6-8-10r---1-3-5r---0-1-3-----------------
b---------------------------------------1---1---------
g---------------------------------------------3p2p0---
d-----------------------------------------3---------3-
a-----------------------------------------------------
e-----------------------------------------------------

Game Start:

e--------------------------------
b--------------------------------
g-------------4h5p4h5p4h5p4h5r---
d-----0-1------------------------
a-3--------3---------------------
e--------------------------------
              ^ play this really fast


Mario Dies:

e---------
b---1-----
g-2-------
d-------3-
a-----3---
e---------
Comments