Misc - Dixie Chords & Tabs

 

Dixie Chords & Tabs

Misc Chords & Tabs

Version: 1 Type: Bass Tab 0 ratings
1 star 2 stars 3 stars 4 stars 5 stars
comments

Dixie Bass Tab

my name is nick stafford im a member of you forum thing and i was wondering
if you could post my tab for the song "Dixie" since there was no tab there
before. my e mail is nickis_thebest@hotmail.com if you need to contact me
 thank you

Dixie
verse

G--7-4-0-0-0-2-4-5-7-7-7-4-
D--------------------------
A--------------------------
E--------------------------
[ Tab from: http://www.guitartabs.cc/tabs/m/misc/dixie_btab.html ]
G--9-9-9-7-9-7-9-11-12-14-16-12-9-12-------------
D-----------------------------------12-9-12-7-9-5
A------------------------------------------------
E------------------------------------------------

chorus
G--7-12-16-14-12-9-12-9-14-9-14
D------------------------------
A------------------------------
E------------------------------

G--7-12-16-14-12-9-11-12-9-7---12------
D----------------------------9----9-9-7
A--------------------------------------
E--------------------------------------


outro
G----------9-7-4-12---------------9-7-4-12-16-14-12
D--9-5-9-7----------9-9-7-9-5-9-7------------------
A--------------------------------------------------
E--------------------------------------------------

Comments