Misc - Dethwing Blues Melody Chords & Tabs

 

Dethwing Blues Melody Chords & Tabs

Misc Chords & Tabs

Version: 1 Type: Tab 0 ratings
1 star 2 stars 3 stars 4 stars 5 stars
comments

Dethwing Blues Melody Tab

   
This is a little Blues Melody I came up with. Play at any tempo you like, I like to keep it moderate. 

e---------------------------|---------------------------|
B---------------------------|---------------------------|
G---------------------------|---------------------------|
D-------------------------12|-------------------------12|
A----10h12/14----10h12/14---|----10h12/14----10h12/14---|
E-12----------12------------|-12----------12------------|
[ Tab from: http://www.guitartabs.cc/tabs/m/misc/dethwing_blues_melody_tab.html ]
e---------------------------|---------------------------|
B---------------------------|---------------------------|
G-------------------------12|---------------------------|
D----10h12/14----10h12/14---|-------------------------12|
A-12----------12------------|----10h12/14----10h12/14---|
E---------------------------|-12----------12------------|

e------------------------------|----------------------------|
B------------13----------------|----------------------------|
G----10h12/14----------------12|----------------------------|
D-12----------------10h12/14---|-------------------------12~|
A---------------12-------------|----10h12/14----10h12/14----|
E------------------------------|-12----------12-------------|

/ = Slide
h = Hammer

---Dethwing
Comments