Misc - Depressing Classical Song Chords & Tabs

 

Depressing Classical Song Chords & Tabs

Misc Chords & Tabs

Version: 1 Type: Tab 3 ratings
1 star 2 stars 3 stars 4 stars 5 stars
comments

Depressing Classical Song Tab

This is my first time doing this and I’ve only been playin for under a year, so here it goes.  If u change and add some stuff to it, it will sound pretty cool.  Oh and its standard tuning.

e---------0---------0---------------0-------0-------------1---------1---------
b-------1--1------1--1------------1--1-----1-1-----------3--3------3-3--------------
g------2-----2--2-----2----------2----2--2----2---------2-----2--2-----2------------
d----3---------3---------------2--------2--------------0--------0-------------------
a-------------------------------------------------------------------------------------------
E-------------------------------------------------------------------------------------------

[ Tab from: http://www.guitartabs.cc/tabs/m/misc/depressing_classical_song_tab.html ]
e---------0---------0-----------------------------------------0------0---------------
b-------1--1------1-1--------------0---------0--------------0--0----0-0--------------
g------2-----2--2-----2----------0--0------0--0-----------0-----0--0---0------------
d----2---------2----------------2------2--2-----2-------0---------0--------------------
a------------------------------2---------2------------------------------------------------
E------------------------------------------------------------------------------------------


e---------0-------------------------------0--------------------------
b-------0--0--------------0-------------1--1-----------------------------
g------2-----2----------1--1----------2-----2-----------------------------
d----2-----------------2-----2-------2----------------------------------
a---------------------2----------------------------------------------
E-------------------------------------------------------------------

After the last note, strum the “E” cord to end it.  Hope you like it
Comments