Misc - Depressing Classic Guitar Chords & Tabs

 

Depressing Classic Guitar Chords & Tabs

Misc Chords & Tabs

Version: 1 Type: Tab 4 ratings
1 star 2 stars 3 stars 4 stars 5 stars
comments

Depressing Classic Guitar Tab

   
title:  depressing classical guitar
from: paddy o'reilly (jaywalker1985@hotmail.com)

this is a very easy song to play, its just a progression of AM, E, F AND dm.

CHORDS:

AM: 002210

E:  022100

F:  133211  (barre)

DM: xx0231


riff 1)

E---------0-----------0--------
B-------1---1-------1---1------
G-----2-------2---2-------2----      AM
D---2-----------2-----------2--
A------------------------------
E------------------------------

riff 2)

E----------------------------
B----------------------------
G---------1---------1-------- 
D-------2--2------2--2-------         E
A-----2------2--2-----2------
E---0---------0--------0-----

riff 3)
[ Tab from: http://www.guitartabs.cc/tabs/m/misc/depressing_classic_guitar_tab.html ]
E---------------------------
B---------------------------
G---------2--------2--------
D-------3--3-----3---3------           F
A-----3-----3--3-------3----
E---1--------1----------1---

riff 4)

E---------1-----------1-------
B-------3---3-------3---3-----
G-----2-------2---2-------2---
D---0-----------0-----------0-         dm
A-----------------------------
E-----------------------------

repeat this to your hearts content.

its also good if you add rhythm to it and begin to strum the chords.

try adding more guitars and it sounds great.

if you have any comments, email moi at 'jaywalker1985@hotmail.com'

or write in the guest book of my lurvely site, www.bobbydavrosanonymous.50megs.com



Comments