Misc - Daily Show Theme Chords & Tabs

 

Daily Show Theme Chords & Tabs

Misc Chords & Tabs

Version: 1 Type: Tab 0 ratings
1 star 2 stars 3 stars 4 stars 5 stars
comments

Daily Show Theme Tab

   
okay,  I've seen everyone tab this song in a very simple way, but I
thought I would tab it so it would have more structure.  I really hope
you take the time to try it.  (If you slow down the tempo and play on
 acoustic, with some light hammer-ons,it sounds very cool, in a 
touching last episode type of way.  
Kind of like the "Cheers" theme.  Play it slower and you'll
see what I mean.

  The Daily Show Theme Song

E|-------------------------------------------------------------------|
B|-------------------------------------------------------------------|
G|---------------0--0--0---------------------------------------------|
D|---2---2-------0--3--0--2------2-----------------------------------|
A|---3-------3------------3--0---3--0--2--0--------------------------|
E|-------------------------------------3--1--------------------------|
[ Tab from: http://www.guitartabs.cc/tabs/m/misc/daily_show_theme_tab.html ]
                                        G  F
E|-------------------------------------------------------------------|
B|--------------------------------------3--1-------------------------|
G|---------------0--0--0----------------4--2-------------------------|
D|---2---2-------0--3--0--2------2------5--3----0--------------------|
A|---3-------3------------3--0---3--0--------------------------------|
E|-------------------------------------------------------------------|

                                                 C  
E|-------------------------------------------------------------------|
B|-----------------------------------------------1-------------------|
G|---------------0--0--0-------------------------0-------------------|
D|---2---2-------0--3--0--2------2---------------2-------------------|
A|---3-------3------------3--0---3--0--2--0------3-------------------|
E|-------------------------------------3--1--------------------------|
 


Thanks again.         Casey E.

   der_casey_bwai@msn.com
Comments