Misc - D Generationx Theme Chords & Tabs

 

D Generationx Theme Chords & Tabs

Misc Chords & Tabs

Version: 1 Type: Tab 1 rating
1 star 2 stars 3 stars 4 stars 5 stars
comments

D Generationx Theme Tab

   
Here is just an easy and fun song I, a WWF fan, taught myself how to
play.  Look for the bass and drum tabs on this site and play with 
your friends.

Verse  (repeat x2)

E[-----------------------------------------------]
A[------------------------------------2-2-3-3-2-2]
D[-2-2-2-0-2-2-0-0-2-2-2-2-2-2-2-0-2-2-----------]
G[-----------------------------------------------]
B[-----------------------------------------------]
e[-----------------------------------------------]

Chorus  (repeat x2)
[ Tab from: http://www.guitartabs.cc/tabs/m/misc/d_generationx_theme_tab.html ]
E[---------------------------------]
A[-0--------2-3-2-3-2-0-------2-3-0]
D[----2-0-2--------------2-0-2-----]
G[---------------------------------]
B[---------------------------------]
e[---------------------------------]

Pro-Chorus

E[-------------------------------]
A[-2-2-X---2-2-X---2-2-X---2-2-X-]
D[-2-2-X---2-2-X---2-2-X---2-2-X-]
G[-------------------------------]
B[-------------------------------]
e[-------------------------------]

(Note: Repeat the entire song 4 times)

Outro

E[---------]
A[-2-2-2-X-]
D[-2-2-2-X-]
G[---------]
B[---------]
e[---------]
Comments