Misc - Cool Tune Chords & Tabs

 

Cool Tune Chords & Tabs

Misc Chords & Tabs

Version: 1 Type: Tab 2 ratings
1 star 2 stars 3 stars 4 stars 5 stars
comments

Cool Tune Tab

------------------------------------------
------------------------------------------
--9------------------------4--------------
--9----9--7-----------2----4--------------
--7----9--7-----------2----2--------------
-------7--5----5-4-2--0-0-----------------  standard tuning
[ Tab from: http://www.guitartabs.cc/tabs/m/misc/cool_tune_tab.html ]

------------------------------------------
------------------------------------------
----------------4-------------------------
----------2-----4-------------2-----------
----------2-----2-------------2-----------
---5-4-2--0--0---------5-4-2--0-----------   pretty groovy huh
Comments