Misc - Cool Song Chords & Tabs

 

Cool Song Chords & Tabs

Misc Chords & Tabs

Version: 1 Type: Tab 2 ratings
1 star 2 stars 3 stars 4 stars 5 stars
comments

Cool Song Tab

-----------------------------------------------------------------------------------
-----7------7-------------------------------------------------------------7-----7--
----7-------7-------------------------------------------------------------7-----7--
---7-----7h9----7/-5---5---------5-------9-------3-------7-------5--7-7h9---7h9----
-------------------3-----3-------5-------9-------3-------7-------5-----------------
---------------------------0-3-----0-7-----0-1-----0-5-----0-3---------------------

[ Tab from: http://www.guitartabs.cc/tabs/m/misc/cool_song_tab.html ]
-----------------------------------------------------------------------------------
-7h10p7----------------------------------------------------------------------------
--------7h9p7--------------------------------------------------------------7-9b-9p7
--------------7h9/--5--5---------5-------9-------3-------7-------5--5-5/-9---------
--------------------3----3-------5-------9-------3-------7-------5-----------------
---------------------------0-3-----0-7-----0-1-----0-5-----0-3---------------------
 
                          Hold
-----------------------------------------------------------------------------------
-----------------------------------------------------------------------------------
-----------------------------------------------------------------------------------
-9-9p7-/-5-------------5-7b--------r7-p-5--------------------------------------------
-----------5-----5-/-7-----------------------7--------------------------------------
-------------0-3-------------------------------------------------------------------

Send Comments To : AGsoccerguy@aol.com
Comments