Misc - Cool Solo Chords & Tabs

 

Cool Solo Chords & Tabs

Misc Chords & Tabs

Version: 1 Type: Tab 9 ratings
1 star 2 stars 3 stars 4 stars 5 stars
comments

Cool Solo Tab





       mostly  32 notes,but some breaks,with flanger set on a high generation speed.



  all 32 notes
--16-12-12-16-12-12-16-12-12-16-12-12-15-12-12-15-12-12-15-12-12-15-12-12-14-12-12-14-12-12~
--------------------------------------------------------------------------------------------
--------------------------------------------------------------------------------------------
--------------------------------------------------------------------------------------------
--------------------------------------------------------------------------------------------
--------------------------------------------------------------------------------------------

-14-15-17-14-15-17-14-15-17-14-15-17~--11-12-14-11-12-14-11-12-14-11-12-14-9-9-9-9^1/4-9^1/2-
---------------------------------------------------------------------------------------------
---------------------------------------------------------------------------------------------
---------------------------------------------------------------------------------------------
---------------------------------------------------------------------------------------------
---------------------------------------------------------------------------------------------


-9^1-9^1/1/4-9^1/1/4grad realease-10-9-8-7-8-9-10-9-8-7-8-9-10-9-8-7-8-9-10^1/4-
--------------------------------------------------------------------------------
--------------------------------------------------------------------------------
--------------------------------------------------------------------------------
--------------------------------------------------------------------------------
--------------------------------------------------------------------------------


-10---10/13----13/16----16-19^1-19-15-15-19-15-15-19-15-15-19^1/2-
----9-------12-------15-------------------------------------------
------------------------------------------------------------------
------------------------------------------------------------------
------------------------------------------------------------------
------------------------------------------------------------------


16th notes
[ Tab from: http://www.guitartabs.cc/tabs/m/misc/cool_solo_tab.html ]
19-17-15----------------------------------------------------------
---------19-17-15-17-15-14-------------------------------------19-
---------------------------19-18-16-18-16-15----------------------
---------------------------------------------21-19-18~--16--------
------------------------------------------------------------------
-----------------------------------------------------------14-----

                 strait 32 notes
         /--------------p.m.------------------------------------------------------------------\
-----------------------------------------------------------------------------------------------
-----------------------------------------------------------------------------------------------
-----------------------------------------------------------------------------------------------
-----------------------------------------------------------------------------------------------
-----------------------------------------------------------------------------------------------
-2V~~~~~~~-0-1-2-0-1-2-0-1-2-0-1-2-0-1-2-2--0-1-2-0-2-3-0-3-4-0-4-5-0-5-6-0-6-7-0-7-8-0-8-9-0--




-----------------------------------------------------------------------------------------------
-----------------------------------------------------------------------------------------------
-----------------------------------------------------------------------------------------------
-----------------------------------------------------------------------------------------------
-----------------------------------------------------------------------------------------------
-9-10-0-10-11-0-11-12~-11-12-14-11-12-14-11-12-14-11-12-14-11-12-14-12-12-12-12-12-12-12-12-14~


-----------------------------------------------------------------------------------------------|
-----------------------------------------------------------------------------------------------|
-----------------------------------------------------------------------------------------------|
-----------------------------------------------------------------------------------------------|
-9-0-0-7-0-0-11-0-0-9-0-0-12-0-0-11-0-0-14-0-0-12-0-0-16^1/2v~---------------------------------|
------------------------------------------------------------------12~--------------------------|
   * *   * *    * *   * *    * *    * *    * *    * *


 Chapin AleXander Stoneraker Copyright2001
Comments