Misc - Cool Reggae Chords & Tabs

 

Cool Reggae Chords & Tabs

Misc Chords & Tabs

Version: 1 Type: Bass Tab 0 ratings
1 star 2 stars 3 stars 4 stars 5 stars
comments

Cool Reggae Bass Tab

********************************************************************
*                                                                  *
*                      By: Ricardo GarcĂ­a                          *
*                       regm@mexico.com                            *
*                                                                  *    
********************************************************************
*                                                                  *
*                          Cool Regge                              *
*                                                                  *
********************************************************************

[ Tab from: http://www.guitartabs.cc/tabs/m/misc/cool_reggae_btab.html ]
G |------------------------------------------------------------------|
D |------------------------------------------------------------------|
A |--------5--5-----5-3-7-7-5-7-5-7--------5--5-----5-3-7-7-5-7-5-7--|
E |--3-5h7------5h7------------------3-5h7------5h7------------------|

G |------------------------------------------------------------------|
D |----5-9-9-5-----4-7-7-4-----2-5-5-2-----4-7-7-4-----5-9-9-5-------|
A |--7---------7-5---------5-3---------3-5---------5-7---------7-----|
E |------------------------------------------------------------------|

G |---------------------------------------|
D |----4-7-7-4-----4-7-7-4-----4-7-7-4----|
A |--5---------5-3---------3-5---------5--|
E |---------------------------------------|

Repeat it all aver again......
Comments