Misc - Cool Original Song Chords & Tabs

 

Cool Original Song Chords & Tabs

Misc Chords & Tabs

Version: 1 Type: Tab 1 rating
1 star 2 stars 3 stars 4 stars 5 stars
comments

Cool Original Song Tab

Hey Here is a petty cool original song that me and my friend made.
E-MAIL me at nikeman@optonline.net for any comments.  

  
  Intro x2
--------------------2-2-2-2------------
--------------------3-3-3-3--0-0-------
--------------------2-2-2-2--0-0-------
--2-2-2-2--------------------2-2----2--
--3-3-3-3--2-2-2-2-----------2-2--2----
-----------3-3-3-3-----------0-0-------

[ Tab from: http://www.guitartabs.cc/tabs/m/misc/cool_original_song_tab.html ]
 |~~~~~~~~~~~Palm Mute~~~~~~~~~~~~~| 
-|---------------------------------|---------------------------------
-|---------3-3-3--/--5-5-5---------|---------7-7-7--/--9-9-9---------
-|--3-3-3--3-3-3--/--5-5-5--5-5-5--|--7-7-7--7-7-7--/--9-9-9--9-9-9--
-|--3-3-3--1-1-1--/--3-3-3--5-5-5--|--7-7-7--5-5-5--/--7-7-7--9-9-9--
-|--1-1-1-------------------3-3-3--|--5-5-5-------------------7-7-7--
-|---------------------------------|---------------------------------


------------------------------
------------------------------
---------5-5-5--7-7-7---------
--2-2-2--3-3-3--7-7-7--5-5-3--
--2-2-2--3-3-3--5-5-5--3-3-3--
--0-0-0----------------3-3-3--
Comments