Misc - Cool Mellow Song Chords & Tabs

 

Cool Mellow Song Chords & Tabs

Misc Chords & Tabs

Version: 1 Type: Tab 0 ratings
1 star 2 stars 3 stars 4 stars 5 stars
comments

Cool Mellow Song Tab

   
#-----------------------------------------------------------------------------#
#-- File created with Instab - http://www.pconline.com/~smcarey/instab.html --#
#-----------------------------------------------------------------------------#

Author/Artist: Mark Nelson
Title: Pure
Album: -
Transcribed by: Mark Nelson
Email: the_wobbly_one@hotmail.com

Hey anyways this is a song ive been writing on and 
off for about a month or so, dont have any lyrics (im 
not good with lyrics so any help would be nice) 
thoughts people please mail them to me. I'd really like 
some feed back on this =o)

Standard Tunning ( EADGBE)

Where its strummed / is a downstroke and \ is 
an upstroke. Cheers Ears

******************************************************************************

Intro -

    Em7               Cadd9            G                
--|---------3-------|---------3------|----------------|----------------|------
--|--3--------3-----|--3--------3----|---------3------|----------------|------
--|----0---------0--|----0--------0--|--0--------0----|--0------0------|------
--|------2----------|------2---------|----0--------0--|----0------0----|------
--|--2--------------|--2-------------|------2---------|------0------0--|------
--|-----------------|----------------|--3-------------|--2-------------|------

                                   Em7                  
     C                 D           /    /  /  / \ / \   /  /  /  / \ / \      
--|---------0-------|--2------2h3--3-|--3--3--3-3-3-3-|-3--3--3--3-3-3-3-|----
--|--3----------3p1-|----3---------3-|--3--3--3-3-3-3-|-3--3--3--3-3-3-3-|----
--|----0------0-----|------2-------0-|--0--0--0-0-0-0-|-0--0--0--0-0-0-0-|----
--|------2----------|--0-----------2-|--2--2--2-2-2-2-|-0--0--0--0-0-0-0-|----
--|--3--------------|--------------3-|--3--3--3-3-3-3-|-0--0--0--0-0-0-0-|----
--|-----------------|--------------0-|--0--0--0-0-0-0-|-2--2--2--2-2-2-2-|----

Here run the pick across the strings quickly
    (*)                                                                       

--|-------3---------|---------3------|---------3------|----------------|------
--|------3---3------|-------3---3----|-------3---3----|---------3------|------
--|-----0-------0---|-----0-------0--|-----0-------0--|-------0---0----|------
--|----2------------|----------------|----------------|-----0-------0--|------
--|---2-------------|--3-------------|----------------|----------------|------
--|--0--------------|----------------|--3-------------|--2-------------|------
                                   /    /  / \ / \                            

--|----------0------|--------2h3---3-|--3--3-3-3-3----|-----------------------
--|--------3---3----|------3-------3-|--3--3-3-3-3----|-----------------------
--|------1-------1--|----2---------0-|--0--0-0-0-0----|-----------------------
--|-----------------|--0-----------2-|--2--2-2-2-2----|-----------------------
--|--3--------------|--------------3-|--3--3-3-3-3----|-----------------------
--|-----------------|--------------0-|--0--0-0-0-0----|-----------------------

Verse -

     G                 C                Am7              Em7
     /  /  / \ / \     /  /  / \ / \    /  /  / \ / \    /  /  / \ / \  x4    
--|--3--3--3-3-3-3--|--3--3--3-3-3-3-|--3--3--3-3-3-3-|--3--3--3-3-3-3---|----
--|*-3--3--3-3-3-3--|--1--1--1-1-1-1-|--1--1--1-1-1-1-|--3--3--3-3-3-3--*|----
--|--0--0--0-0-0-0--|--0--0--0-0-0-0-|--2--2--2-2-2-2-|--0--0--0-0-0-0---|----
--|--0--0--0-0-0-0--|--2--2--2-2-2-2-|--2--2--2-2-2-2-|--2--2--2-2-2-2---|----
--|*-2--2--2-2-2-2--|--3--3--3-3-3-3-|--0--0--0-0-0-0-|--2--2--2-2-2-2--*|----
--|--3--3--3-3-3-3--|--0--0--0-0-0-0-|--0--0--0-0-0-0-|--0--0--0-0-0-0---|----

[ Tab from: http://www.guitartabs.cc/tabs/m/misc/cool_mellow_song_tab.html ]
Bridge - 
                                                                              
    Em7               Cadd9            G  
--|----------3------|----------3-----|----------------|----------------|------
--|---3--------3----|---3--------3---|----------3-----|----------------|------
--|-------0------0--|-------0------0-|---0--------0---|---0------0-----|------
--|-----2-----------|-----2----------|-------0------0-|-------0----0---|------
--|-2--------------2|-3-------------3|-----2----------|-----0--------0-|------
--|-----------------|----------------|-3-------------3|-2--------------|------

Chorus -                                                                              

     G                 C                Am7               Em7
--|-----------------|-----------------|-----------------|-----------------|---
--|*--3-----3-------|---1-----1-------|---1-----1-------|---3-----3-------|---
--|-----0-----0---0-|-----0-----0---0-|-----2-----2---2-|-----0-----0---0-|---
--|-----------------|-----------------|-----------------|-----------------|---
--|*----------------|-3-----3-----3---|-0-----0-----0---|-2-----2-----2---|---
--|-3-----3-----3---|-----------------|-----------------|-----------------|---
                    x2                                                        

--|-----------------|---------------------------------------------------------
--|---3-----3------*|---------------------------------------------------------
--|-----0-----0---0-|---------------------------------------------------------
--|-----------------|---------------------------------------------------------
--|-2-----2-----2--*|---------------------------------------------------------
--|-----------------|---------------------------------------------------------

Solo (opptional) 
                                                                              

--|---------------------------------------------------------------------------
--|---------------------------------------------------------------------------
--|-----------------------------------------10----12b13r12-12b13r12-10h12-----
--|------8----10b---8/10-8--10/12-10--10h12----12-----------------------------
--|-8h10---10-----------------------------------------------------------------
--|---------------------------------------------------------------------------
                                                                              

-----------------|------------------------------------------------------------
-----------------|------------------------------------------------------------
-----------------|------------------------------------------------------------
----12\10-8h10-8-|------------------------------------------------------------
-----------------|------------------------------------------------------------
-----------------|------------------------------------------------------------

Outro -

     G                 C                Am7              D                 Em7
--|--3--3--3-3-3-3--|--3--3--3-3-3-3-|--3--3--3-3-3-3-|--2--2--2-2-2-2---|--3-
--|--3--3--3-3-3-3--|--1--1--1-1-1-1-|--1--1--1-1-1-1-|--3--3--3-3-3-3---|--3-
--|--0--0--0-0-0-0--|--0--0--0-0-0-0-|--2--2--2-2-2-2-|--2--2--2-2-2-2---|--0-
--|--0--0--0-0-0-0--|--2--2--2-2-2-2-|--2--2--2-2-2-2-|--0--0--0-0-0-0---|--2-
--|--2--2--2-2-2-2--|--3--3--3-3-3-3-|--0--0--0-0-0-0-|------------------|--2-
--|--3--3--3-3-3-3--|--0--0--0-0-0-0-|--0--0--0-0-0-0-|------------------|--0-


                                                                              

Basically it goes 

Intro
Verse x4
Bridge
Chorus
Verse x4
Bridge 
Chorus
Solo (opptional)
Outro


The solo i havent heard with the backing im trying to get it recorded so i can play it over,
but basically just get one guitar to play the chorus riff while the other plays the solo, its
not great i know but hey first timer here! Any hints or suggestions please mail me them.
Cheers Ears.
Comments