Misc - Cool Hard Rock Rif Chords & Tabs

 

Cool Hard Rock Rif Chords & Tabs

Misc Chords & Tabs

Version: 1 Type: Tab 0 ratings
1 star 2 stars 3 stars 4 stars 5 stars
comments

Cool Hard Rock Rif Tab

by Brian S
[ Tab from: http://www.guitartabs.cc/tabs/m/misc/cool_hard_rock_rif_tab.html ]
e-------------------------------------x--------15brp12----15brp15-|
b---14--12--------------------15brbr--x----------------15---------|
g---14--12--------------12h14-------------------------------------|
d-----------------12h14-------------------------------------------|
a-----------12h14-------------------------x\----------------------|
e------------------------------------------x\---------------------|
				      pick slide		
      dive bomb 2 1/2 steps
       <    <    	Tap Harmonic (Tap over fret in 
 				              parenthesis) 	
e--------12------------------------------------------0(12)-------|
b-15-----12------------------------------------0(12)--------9----|
g--------13------------------------------1(13)--------------9----|
d----------------------------------2(14)--------------------9----|
a----------------------------2(14)-------------------------------|
e-----------------------0(12)------------------------------------|
Comments