Misc - Cool And Easy Song I Came Up With Chords & Tabs

 

Cool And Easy Song I Came Up With Chords & Tabs

Misc Chords & Tabs

Version: 1 Type: Tab 10 ratings
1 star 2 stars 3 stars 4 stars 5 stars
comments

Cool And Easy Song I Came Up With Tab

   
#----------------------------------PLEASE NOTE--------------------------------#
#This file is the author's own work and represents their interpretation of the#
#song. You may only use this file for private study, scholarship, or research.#
#-----------------------------------------------------------------------------#
#-- File created with Instab - http://www.pconline.com/~smcarey/instab.html --#
#-----------------------------------------------------------------------------#
[ Tab from: http://www.guitartabs.cc/tabs/m/misc/cool_and_easy_song_i_came_up_with_tab.html ]
-----2---0-2---------------------2---3-2--------------------------------------
-------3-----------2---0-2---------3----------2---0-2-------------------------
---2-----------------2---------2----------------2-----------------------------
-0---------------2-----------0--------------2---------------------------------
---------------0--------------------------0-----------------------------------
------------------------------------------------------------------------------
 Just repeat this a couple of times, then strum a couple of times:             

--0-------3-------------------------------------------------------------------
--0-------0-------------------------------------------------------------------
--0-------0-------------------------------------------------------------------
--2-------0-------------------------------------------------------------------
--2-------2-------------------------------------------------------------------
--0-------3-------------------------------------------------------------------
  Em  and G                                                                   

e-mail: tom_vds30@hotmail.com
Comments