Misc - Clint Eastwood Theme Song Chords & Tabs

 

Clint Eastwood Theme Song Chords & Tabs

Misc Chords & Tabs

Version: 1 Type: Tab 3 ratings
1 star 2 stars 3 stars 4 stars 5 stars
comments

Clint Eastwood Theme Song Tab

Clint Eastwood Theme Song
---0---0-----------------0---0-----------------0---0-------------------
-0---0---0-------------0---0---0-------------0---0---0-----------------
-----------------------------------------------------------------------
-----------------------------------------------------------------------
----------------------------------------5------------------------------
--------------3-5-0-----------------3-5-------------------3-5-0--------

---0---0------------
-0---0---0----------
--------------------
--------------------
------------------7-
--------------3-5---
_____________________________________________________________________
i wuz bored one night so i figured out how to play this song...it may
not be completely accurate cuz i dont like cowboy movies so it might 
sound a little bit funny... peace n good luck (it isnt that hard)
[ Tab from: http://www.guitartabs.cc/tabs/m/misc/clint_eastwood_theme_song_tab.html ]
Comments