Misc - Christmas God Rest Ye Mary Gentlemen Chords & Tabs

 

Christmas God Rest Ye Mary Gentlemen Chords & Tabs

Misc Chords & Tabs

Version: 1 Type: Tab 2 ratings
1 star 2 stars 3 stars 4 stars 5 stars
comments

Christmas God Rest Ye Mary Gentlemen Tab

po = Pull off

/ Slide down

Slide up

ho = hammer on

-------0--0------------------------------0----------
-------------3--1-po-0--------0--1--1/3--3/5--------
-2--2-----------------2-po-0------------------------
----------------------------------------------------
----------------------------------------------------
----------------------------------------------------
 Ring the open note through
----------0-----------------------------------------
-------------3/53-----1-po-0-------------0--1-1/3--
-2--1h2------------------------2-po-0--2------------
----------------------------------------------------
----------------------------------------------------
----------------------------------------------------
[ Tab from: http://www.guitartabs.cc/tabs/m/misc/christmas_god_rest_ye_mary_gentlemen_tab.html ]
-0--------0--1----0--1--1/3--3/5---0----------------
-3/5-----------3----------------------3--1-----0--1-
--------------------------------------------2-------
----------------------------------------------------
----------------------------------------------------
----------------------------------------------------
This second slide is a bit slower  1-/-3
--------------0--1-po-0--0--0-----------------------
-1/3--1-/-3--------------------2/3---1-po-0------1/3
-----------------------------------------------2----
----------------------------------------------------
----------------------------------------------------
----------------------------------------------------

-------------0-1/3-3/5---0--------------------------
-1/3--1-/-3------------------2/3--1-po-0------------
-------------------------------------------2--------
----------------------------------------------------
----------------------------------------------------
----------------------------------------------------
Comments