Misc - Chareorae Chords & Tabs

 

Chareorae Chords & Tabs

Misc Chords & Tabs

Version: 1 Type: Tab 1 rating
1 star 2 stars 3 stars 4 stars 5 stars
comments

Chareorae Tab

   
Chareorae:  by da Sickness

This is a song I made, complete with chords and solos

Chorus
| -----0------0--3/5--3--1--1-----------0----------------------|
| ---------------------------------------------3--1--0--1--1-----|
|------------------------------------------------------------------|
|------------------------------------------------------------------|
|------------------------------------------------------------------|
|------------------------------------------------------------------|

| -----0------0--3/5--3--1--------------------------------------|
|------------------------------3-----0--1--3--0-----------------|
|---------------------------------------------------2--2----------|
|------------------------------------------------------------------|
|------------------------------------------------------------------|
|------------------------------------------------------------------|

Bridge
|----0-------0--1--0--1--0-----------------------------------------------------------|
|------------------------------1------1--3--1--3--1----------------------------------|
|-------------------------------------------------------1-----1--2--1--2--2--2/4/2-|
|---------------------------------------------------------------------------------------|
|---------------------------------------------------------------------------------------|
|---------------------------------------------------------------------------------------|

Solo 1
|------------------------------------------------------------------|
|------------------------------------------------------------------|
|--9-------9--7-------7--9/10--9----------9--7------7--9/10|
|-----------------10-------------------------------10------------|
|------------------------------------------------------------------|
|------------------------------------------------------------------|
[ Tab from: http://www.guitartabs.cc/tabs/m/misc/chareorae_tab.html ]
|------------------------------------------------------------------|
|------------------------------------------------------------------|
|-9--7/6--7----7--9/109--10/12/10--12/13/12--10--9---|
|------------------------------------------------------------------|
|------------------------------------------------------------------|
|------------------------------------------------------------------|

|------------------------------------------------------------------|
|------------------------------------------------------------------|
|--9-------9--7-------7--9/10--9----------9--7------7--910|
|-----------------10-------------------------------10------------|
|------------------------------------------------------------------|
|------------------------------------------------------------------|

|------------------------------------------------------------------|
|------------------------------------------------------------------|
|-9--7--5--7------7--5------5--4------5--4----4--2-------2-|
|---------------------------7--------------------5----------------|
|------------------------------------------------------------------|
|------------------------------------------------------------------|

Chorus

Solo 2
|------------------------------------------------------------------|
|---------7--8--8/10--8--10--11--10--8--7------4--3-------|
|--7--8-----------------------------------------------------------|
|------------------------------------------------------------------|
|------------------------------------------------------------------|
|------------------------------------------------------------------|

|------------------------------------------------------------------|
|-12-----12-12-13-12-12-13-10-12/13--12---------------|
|------------------------------------------------------------------|
|------------------------------------------------------------------|
|------------------------------------------------------------------|
|------------------------------------------------------------------|

|-------------------------------11------------------------------------11--12--12/14--12--14--15-14--12-8---7--|
|12----12-12-13-12-12-13----13--12--12-12-13-12-12-13----------------------------------------------------|

Chords
Am / Dm / Em / Am

Yeah it sounds like a sad song … haha 
My intention was to make it sound like a Spanish song…

E-mail me what you think ….    bloodsorcerer@hotmail.com



Comments