Misc - Castlevania Poison Mind Chords & Tabs

 

Castlevania Poison Mind Chords & Tabs

Misc Chords & Tabs

Version: 1 Type: Tab 0 ratings
1 star 2 stars 3 stars 4 stars 5 stars
comments

Castlevania Poison Mind Tab

Castlevania - Poison Mind (boss music)
Tabbed by SpRiNgWaFfLe

I seperated the strings like that because on guitar
all you need is the first and second. The other part
is the bass. 8/8 time. The bass is half notes and the
guitar is sixteenth notes. Same four measures looped
over and over and over and over.... enjoy!

e----15-11-15----15-11-15----15-13-15----15-13-15-
b-13----------13----------15----------15----------

g-------------------------------------------------
d-------------------------------------------------
a-3-----------------------2-----------------------
e-------------------------------------------------

e----15-11-15----15-11-15----15-11-15----15-11-15-
b-13----------13----------13----------13----------
[ Tab from: http://www.guitartabs.cc/tabs/m/misc/castlevania_poison_mind_tab.html ]
g-------------------------------------------------
d-------------------------1-----------------------
a-3-----------------------------------------------
e-------------------------------------------------

e----16-13-16----16-13-16----15-11-15----15-11-15-
b-13----------13----------13----------13----------

g-------------------------0-----------------------
d-3-----------------------------------------------
a-------------------------------------------------
e-------------------------------------------------

e----15-13-15----15-13-15----15-13-15----15-13-15-
b-15----------15----------13----------13----------

g-------------------------------------------------
d-------------------------------------------------
a-2-----------------------3-----------------------
e-------------------------------------------------
Comments