Misc - Burnout 2 Point Of Impact Chords & Tabs

 

Burnout 2 Point Of Impact Chords & Tabs

Misc Chords & Tabs

Version: 1 Type: Tab 0 ratings
1 star 2 stars 3 stars 4 stars 5 stars
comments

Burnout 2 Point Of Impact Tab

Great theme tune that I couldn't find a tab for.  Not certain about the order, but the parts are all there

Check it out weyland!

Guitar 1
----------------------------------------------------------
----------------------------------------------------------
----------------------------------------------------------
-2-2-2-2--2-2-2-2--2-4-5-4-2-2-2-2-2--2-2-2-2--2-4-5-4-2--
----------------------------------------------------------
----------------------------------------------------------

   Guitar 2
   ----------------------------------------------------------
   ----------------------------------------------------------
   ----------------------------------------------------------
   ----------------------------------------------------------
   ----------------------------------------------------------
   ----------------------------------------------------------

      Guitar 3
      ----------------------------------------------------------
      ----------------------------------------------------------
      ----------------------------------------------------------
      ----------------------------------------------------------
      ----------------------------------------------------------
      ----------------------------------------------------------

Guitar 1
----------------------------------------------------------
----------------------------------------------------------
----------------------------------------------------------
-------------------2-4-5-4-2-------------------2-4-5-4-2--
-3-3-3-3--3-3-3-3------------3-3-3-3--3-3-3-3-------------
----------------------------------------------------------

   Guitar 2
   ----------------------------------------------------------
   ----------------------------------------------------------
   ----------------------------------------------------------
   ----------------------------------------------------------
   ----------------------------------------------------------
   ----------------------------------------------------------

      Guitar 3
      ----------------------------------------------------------
      ----------------------------------------------------------
      ----------------------------------------------------------
      ----------------------------------------------------------
      ----------------------------------------------------------
      ----------------------------------------------------------


Guitar 1
----------------------------------------------------------
----------------------------------------------------------
----------------------------------------------------------
-2-2-2-2--2-2-2-2--2-4-5-4-2-------------------2-4-5-4-2--
-----------------------------3-3-3-3--3-3-3-3-------------
----------------------------------------------------------

   Guitar 2
   ----------------------------------------------------------
   ----------------------------------------------------------
   ----------------------------------------------------------
   ----------------------------------------------------------
   ----------------------------------------------------------
   ----------------------------------------------------------

      Guitar 3
      ----------------------------------------------------------
      -----5-------5-------5-------5-------5-------5-------5----
      ----------------------------------------------------------
      -2-------2-------2-------2-------2-------2-------2--------
      ----------------------------------------------------------
      ----------------------------------------------------------

-----------------------------------------------------------------------

Guitar 1
----------------------------------------------------------
----------------------------------------------------------
----------------------------------------------------------
-2-2-2-2--2-2-2-2--2-4-5-4-2-2-2-2-2--2-2-2-2--2-4-5-4-2--
----------------------------------------------------------
----------------------------------------------------------
[ Tab from: http://www.guitartabs.cc/tabs/m/misc/burnout_2_point_of_impact_tab.html ]
   Guitar 2
   -----------------------------------------------------------------
   -----5-----3---------5-----3---------5-----3---------5-----3-----
   ---------------4---------------4---------------4---------------4-
   -2-2---2-2---2---2-2---2-2---2---2-2---2-2---2---2-2---2-2---2---
   -----------------------------------------------------------------
   -----------------------------------------------------------------

      Guitar 3
      ----------------------------------------------------------
      ----------------------------------------------------------
      ----------------------------------------------------------
      ----------------------------------------------------------
      ----------------------------------------------------------
      ----------------------------------------------------------

Guitar 1
----------------------------------------------------------
----------------------------------------------------------
----------------------------------------------------------
-------------------2-4-5-4-2-------------------2-4-5-4-2--
-3-3-3-3--3-3-3-3------------3-3-3-3--3-3-3-3-------------
----------------------------------------------------------

   Guitar 2
   -----------------------------------------------------------------
   -----------------------------------------------------------------
   -----7-----6---------7-----6---------7-----6---------7-----6-----
   ---------------7---------------7---------------7---------------7-
   -5-5---5-5---5---5-5---5-5---5---5-5---5-5---5---5-5---5-5---5---
   -----------------------------------------------------------------

      Guitar 3
      ----------------------------------------------------------
      ----------------------------------------------------------
      ----------------------------------------------------------
      ----------------------------------------------------------
      ----------------------------------------------------------
      ----------------------------------------------------------

Guitar 1
----------------------------------------------------------
----------------------------------------------------------
----------------------------------------------------------
-2-2-2-2--2-2-2-2--2-4-5-4-2-------------------2-4-5-4-2--
-----------------------------3-3-3-3--3-3-3-3-------------
----------------------------------------------------------

   Guitar 2
   -----------------------------------------------------------------
   -----5-----3---------5-----3---------5-----3---------5-----3-----
   ---------------4---------------4---------------4---------------4-
   -2-2---2-2---2---2-2---2-2---2---2-2---2-2---2---2-2---2-2---2---
   -----------------------------------------------------------------
   -----------------------------------------------------------------

      Guitar 3
      ----------------------------------------------------------
      -5---------------------------------------------------------
      -----------------------------5----------------------------
      ----------------------------------------------------------
      ----------------------------------------------------------
      ----------------------------------------------------------


Guitar 1
----------------------------------------------------------
----------------------------------------------------------
----------------------------------------------------------
-2-2-2-2--2-2-2-2--2-4-5-4-2-5-5-5-5--5-5-5-5-------------
----------------------------------------------------------
----------------------------------------------------------

   Guitar 2
   -----------------------------------------------------------------
   -----------------------------------------------------------------
   -----7-----6---------7-----6-------------------------------------
   ---------------7---------------7---------------------------------
   -5-5---5-5---5---5-5---5-5---5---5-------------------------------
   -----------------------------------------------------------------

      Guitar 3
      ----------------------------------------------------------
      -7---------------------------8----------------------------
      ----------------------------------------------------------
      ----------------------------------------------------------
      ----------------------------------------------------------
      ----------------------------------------------------------

Let me know what you think

Nick is Gay (lookin a little crispy over there mikey.  Like some fried chicken Fother Mucker)
Comments