Misc - Boss Theme Megaman Chords & Tabs

 

Boss Theme Megaman Chords & Tabs

Misc Chords & Tabs

Version: 1 Type: Tab 0 ratings
1 star 2 stars 3 stars 4 stars 5 stars
comments

Boss Theme Megaman Tab

Song: Megaman 2: Boss Theme
Tabbed By: Tim Barr
MX ID: SpADed
Date: 1/24/04
                                                                          
E||--------5-3------------|--------------3----|--5-----15-11--------------|
B||------------4----------|-------------------|--------------13-10--------|
G||--5-----------5--------|-------------------|---------------------------|
D||-----------------------|-------------------|---------------------------|
A||-----------------------|-------------------|---------------------------|
E||-----------------------|-------------------|---------------------------|


                                                                        
--8-----------8-11-8-11-8-11-15-|--------------------------------------|
-----------10-------------------|--13-13--13--13-13---13-13--13--13-13-|
--------------------------------|--------------------------------------|
--------------------------------|--------------------------------------|
--------------------------------|--------------------------------------|
--------------------------------|--------------------------------------|


                                                                      
--------------15---15-13--15--|--------------------------------------|
--13----13--------------------|--------------------------------------|
------------------------------|--15-15--15--15-15---15-15--15--15-15-|
------------------------------|--------------------------------------|
------------------------------|--------------------------------------|
------------------------------|--------------------------------------|


                                                                      
--------------13---13-11--13--|--------------------------------------|
------------------------------|--10-10--10--10-10---10-10--10--10-10-|
--15----15--------------------|--------------------------------------|
------------------------------|--------------------------------------|
------------------------------|--------------------------------------|
------------------------------|--------------------------------------|

[ Tab from: http://www.guitartabs.cc/tabs/m/misc/boss_theme_megaman_tab.html ]
                                                                      
--------------13---13-11--13--|--------------------------------------|
--10----10--------------------|--------------------------------------|
------------------------------|--10-10--10--10-10---10-10--10--10-10-|
------------------------------|--------------------------------------|
------------------------------|--------------------------------------|
------------------------------|--------------------------------------|


                                                                
-------7----10----15----|--------------------------------------|
--8---------------------|--13-13--13--13-13---13-13--13--13-13-|
------------------------|--------------------------------------|
------------------------|--------------------------------------|
------------------------|--------------------------------------|
------------------------|--------------------------------------|


                                                                      
--------------15---15-13--15--|--------------------------------------|
--13----13--------------------|--------------------------------------|
------------------------------|--15-15--15--15-15---15-15--15--15-15-|
------------------------------|--------------------------------------|
------------------------------|--------------------------------------|
------------------------------|--------------------------------------|


                                                                      
--------------13---13-11--13--|--------------------------------------|
------------------------------|--10-10--10--10-10---10-10--10--10-10-|
--15----15--------------------|--------------------------------------|
------------------------------|--------------------------------------|
------------------------------|--------------------------------------|
------------------------------|--------------------------------------|


                                                                      
--------------13---13-11--13--|--------------------------------------|
--10----10--------------------|--------------------------------------|
------------------------------|--10-10--10--10-10---10-10--10--10-10-|
------------------------------|--------------------------------------|
------------------------------|--------------------------------------|
------------------------------|--------------------------------------|


                                                                                
-------7----10--------|--8-8---10-10---11-11---13-11-13-15-|------------------||
--8-------------------|------------------------------------|------------------||
----------------------|------------------------------------|------------------||
----------------------|------------------------------------|------------------||
----------------------|------------------------------------|------------------||
----------------------|------------------------------------|------------------||


Comments