Misc - Boss Battle Final Fantasy Chords & Tabs

 

Boss Battle Final Fantasy Chords & Tabs

Misc Chords & Tabs

Version: 1 Type: Tab 0 ratings
1 star 2 stars 3 stars 4 stars 5 stars
comments

Boss Battle Final Fantasy Tab

Jesus Christ Standard Tuning - (low to high) EADGBe
-------------------------------------------------
------------------------------------------------
-------------------------------------------------
------------------------------1-0---0------------
--0-0-0-3----0-0-0-5----0-0-0-----3---3-2-3---2--
------------------------------------------------- twice
   PALM MUTE ------------------------------------->
[ Tab from: http://www.guitartabs.cc/tabs/m/misc/boss_battle_final_fantasy_tab.html ]
-------------------------------------------------
-------------------------------------------------
-------------------------------------------------
--------1----------3----------4-3-1-3-1-0-1---0--
--3-3-3------3-3-3------3-3-3--------------------
-------------------------------------------------
  PALM MUTE ------------------------------------->

-------------------------------------------------
-------------------------------------------------
-------------------------------------------------
--------1----------3----------4-3-1-3-1-0-1-0----
--3-3-3------3-3-3------3-3-3-----------------3--
-------------------------------------------------
 PALM MUTE ------------------------------------->


im not really done but this is the main idea... 

Comments