Misc - Bomb Mans Theme Megaman Chords & Tabs

 

Bomb Mans Theme Megaman Chords & Tabs

Misc Chords & Tabs

Version: 1 Type: Tab 0 ratings
1 star 2 stars 3 stars 4 stars 5 stars
comments

Bomb Mans Theme Megaman Tab

Song: Megaman : Bomb Man's Theme
Tabbed By: Tim Barr
MX ID: SpADeD
Date: 1/28/04
                                                       
E||---------------------|-------------6-17-------------|
B||-------------2-2--2--|---0--------------0-----------|
G||---------------------|------------------------------|
D||---------------------|------------------------------|
A||---------------------|-----------------------16-16--|
E||---------------------|------------------------------|


                                                                     
------------------------------------|-------------------------------|
------------------------------------|-------------------------------|
------------------------------------|-------------------------------|
------------------------------------|-------------6-----------------|
----16----15-15-15-15--15-----------|-----------8---8--9-----9---9--|
-------------------------------13---|------9-11---------------------|


                                                                
-------------------------------|-------------------------------|
---------------------0---------|-------------------------------|
-------------------------------|---------------------1----1----|
----------------6-----------6--|----4---3-------1--3---3-------|
----8-------6-8----8-----------|--------------4----------------|
----------9--------------------|-------------------------------|


                                                                  
-------------------------------0-----|---------------------------|
----------0----0----0-3--2---2----4--|---------------------------|
--------1----1----0--------2---------|------2--------------------|
----2-4------------------------------|--------1------4----2-4----|
-------------------------------------|-----------------4------4--|
-------------------------------------|---------------------------|


                                                                
------------------------------|-----------------------0-1----1-|
------------------------------|----------------------------4---|
------------------------------|-------0-------------4----------|
----4-2----1--2----3-4----2-4-|------------------4-------------|
---------2------2------4------|-----4---------4----------------|
------------------------------|----------4-4-------------------|

[ Tab from: http://www.guitartabs.cc/tabs/m/misc/bomb_mans_theme_megaman_tab.html ]
                                                 
------1-----------------------------------------|
----4---4--2---------2-3-2-3--2-3-2-0-----------|
-------------1--1--1--------------------------4-|
---------------------------------------4--4-4---|
------------------------------------------------|
------------------------------------------------|


                                                     
--------------------------------0--------------2----|
-------------------3---------------1-------------4--|
----5----------------2------------------------------|
------5--2-------------4--0----------4--2-----------|
-----------3----------------0-------------3---------|
--------------3-0-------------2-------------2-------|


                                                                      
-----------------------------------|---------------------------------|
-----------------------------------|-----------------------------0---|
---1---------------------1---------|-------------------------1-------|
-----4--1---3--------1-3----3-4----|----4---4---3-------1-3----3-----|
-------------------4---------------|------------------4--------------|
----------4------------------------|---------------------------------|


                                                                 
-----------------------------|----------------------------------|
-----------------------------|-------------------0---0----0-3---|
-------1-------------------1-|------1---------1----1----0-------|
----------4---3--------1-3---|---3--------2-4-------------------|
--------------------4--------|----------------------------------|
-----------------------------|----------------------------------|


                                                               
----------0--------------------|------------------------------|
---2---2----4------------------|------------------------------|
-----2-----------2-------------|------------------------------|
-------------------1------4----|-----2-4----4-2----1--2----3--|
----------------------------4--|----------4------2------2-----|
-------------------------------|------------------------------|


                                                       
----------------------------|-------0--1-------------||
----------------------------|------------------------||
----------------0-----------|-----4------------------||
---4----2--4----------------|---4--------------------||
------4------4---------4----|------------------------||
------------------4-4-------|------------------------||


Comments