Misc - Blues Tune Chords & Tabs

 

Blues Tune Chords & Tabs

Misc Chords & Tabs

Version: 1 Type: Tab 2 ratings
1 star 2 stars 3 stars 4 stars 5 stars
comments

Blues Tune Tab

Blues Tune
By: Michael Naranjo

G|------------------|-------------------
D|---2---3---2------|---2---3---2-------
A|---------------5--|---------------5---
E|-3---3---3---3----|-3---3---3---3-----
[ Tab from: http://www.guitartabs.cc/tabs/m/misc/blues_tune_tab.html ]
G|---2---3---2------|---2---3---2-------
D|---------------5--|---------------5---
A|-3---3---3---3----|-3---3---3---3-----
E|------------------|-------------------

G|---4---5---4------|---4---5---4-------
D|---------------7--|---------------7---
A|-5---5---5---5----|-5---5---5---5-----
E|------------------|-------------------
Comments