Misc - Blues Exercises 9 Chords & Tabs

 

Blues Exercises 9 Chords & Tabs

Misc Chords & Tabs

Version: 1 Type: Tab 0 ratings
1 star 2 stars 3 stars 4 stars 5 stars
comments

Blues Exercises 9 Tab

9th of 10

E||--------0--------0--------0-----------|----------------------------|
B||-----3--------3--------3--------------|--------2--0----------------|
G||--4--------4--------4--------2--0h-1--|--------2--0h1--------------|
D||--------------------------------------|--2-------------2-----------|
A||--------------------------------------|----------------------------|
E||--0--------0--------0--------0--------|--0--0--0-------0--0--0--0--|


                                                                           
--------0--------0--------0-----------|--------------0--------0--------0--|
-----3--------3--------3--------------|-----------3--------3--------3-----|
--4--------4--------4--------2--0h-1--|--------4--------4--------4--------|
--------------------------------------|--2--------------------------------|
--------------------------------------|-----------------------------------|
--0--------0--------0--------0--------|--0--0--0--------0--------0--------|


                                                                        
--------------3--------3--------3--|--------------3--------3--------3/-|
-----------5--------5--------5-----|-----------5--------5--------5-----|
--------6--------6--------6--------|--------6--------6--------6--------|
-----------------------------------|-----------------------------------|
--0--0--0--------0--------0--------|--0--0--0--------0--------0--------|
-----------------------------------|-----------------------------------|


                                                            
--4-------------------------|--------0--0--0--0-0--0--0----|
--------------------2--0----|--------3--3--3--3-3--3--3----|
--------------------2--0h1--|--------4--4--4--4-4--4--4----|
----------------------------|--2---------------------------|
----------------------------|---------------------------1--|
--0--0--0--0--0--0--0-------|--0--0--0-----0-------0-------|


                                                                 
--------------------------------|-------------------------------|
-----0-----------4--------------|-----2-----------2-----2--0----|
-----2-----------4--------------|-----2-----------2-----2--0h1--|
-----1-----4--6-----6--------4--|-----2-----2--4----------------|
--2-----6--------------5--6-----|--0-----4-----------0----------|
--------------------------------|-------------------------------|


                                                          
----------0-------0-------0----|-------------------------|
-------9----9--8----8--7----7--|--5----------------------|
-------------------------------|--------7--8-------------|
--2----9----9--8----8--7----7--|--6-----6--7-------------|
-------------------------------|--------8--9-------------|
--0----------------------------|-----0--6--7----7--7--7--|

[ Tab from: http://www.guitartabs.cc/tabs/m/misc/blues_exercises_9_tab.html ]
                                                                    
--------0--------0--------0-----------|----------------------------|
-----3--------3--------3--------------|--------2--0----------------|
--4--------4--------4--------2--0h-1--|--------2--0h1--------------|
--------------------------------------|--2-------------2-----------|
--------------------------------------|----------------------------|
--0--------0--------0--------0--------|--0--0--0-------0--0--0--0--|


                                                                           
--------0--------0--------0-----------|--------------0--------0--------0--|
-----3--------3--------3--------------|-----------3--------3--------3-----|
--4--------4--------4--------2--0h-1--|--------4--------4--------4--------|
--------------------------------------|--2--------------------------------|
--------------------------------------|-----------------------------------|
--0--------0--------0--------0--------|--0--0--0--------0--------0--------|


                                                                        
--------------3--------3--------3--|--------------3--------3--------3/-|
-----------5--------5--------5-----|-----------5--------5--------5-----|
--------6--------6--------6--------|--------6--------6--------6--------|
-----------------------------------|-----------------------------------|
--0--0--0--------0--------0--------|--0--0--0--------0--------0--------|
-----------------------------------|-----------------------------------|


                                                            
--4-------------------------|--------0--0--0--0-0--0--0----|
--------------------2--0----|--------3--3--3--3-3--3--3----|
--------------------2--0h1--|--------4--4--4--4-4--4--4----|
----------------------------|--2---------------------------|
----------------------------|---------------------------1--|
--0--0--0--0--0--0--0-------|--0--0--0-----0-------0-------|


                                                                 
--------------------------------|-------------------------------|
-----0-----------4--------------|-----2-----------2-----2--0----|
-----2-----------4--------------|-----2-----------2-----2--0h1--|
-----1-----4--6-----6--------4--|-----2-----2--4----------------|
--2-----6--------------5--6-----|--0-----4-----------0----------|
--------------------------------|-------------------------------|


                                                        
----------0-------0-------0----|--------8--7----------||
-------9----9--8----8--7----7--|--5-----8--7----------||
-------------------------------|--------8--7----------||
--2----9----9--8----8--7----7--|--6-------------------||
-------------------------------|----------------------||
--0----------------------------|-----0----------------||
Comments