Misc - Blues Exercises 6 Chords & Tabs

 

Blues Exercises 6 Chords & Tabs

Misc Chords & Tabs

Version: 1 Type: Tab 0 ratings
1 star 2 stars 3 stars 4 stars 5 stars
comments

Blues Exercises 6 Tab

6th of 10

E||---------------------|-----------------------|------------------------|
B||------------------5--|---------5----------7/-|--8/---7----5-----7--5--|
G||------------4h-6-----|------6-------4h-6-----|---------------6--------|
D||---------------------|-----------------------|------------------------|
A||---------------------|-----------------------|------------------------|
E||---------------------|-----------------------|------------------------|


                                                                        
---------------------|------------------7-----|------------------------|
------------------5--|----------5----9-----8h-|------7-----7--------8h-|
------------4h-6-----|----4h-6----------------|---------9-----9h-6-----|
---------------------|------------------------|------------------------|
---------------------|------------------------|------------------------|
---------------------|------------------------|------------------------|


                                                                       
------------------------|---------------------|-----------------------|
------7-----7-----------|------------------5--|----------5------------|
---------9-----9h-6--9--|------------4h-6-----|----4h-6-------4h-6----|
------------------------|---------------------|-----------------------|
------------------------|---------------------|-----------------------|
------------------------|---------------------|-----------------------|


                                                                        
-----------------------|----------------------|---------0-----0-----0--|
----------7---------8h-|------7----5-------5--|------------------------|
--7--8---------8-------|--------------6-------|------4-----3-----2-----|
-----------------------|----------------------|------------------------|
-----------------------|----------------------|------5-----4-----3-----|
-----------------------|----------------------|------------------------|

[ Tab from: http://www.guitartabs.cc/tabs/m/misc/blues_exercises_6_tab.html ]
                                                     
----------------------------|-----------------------|
--------0--2--0----------5--|---------5----------7/-|
--0h-1--------2----4h-6-----|------6-------4h-6-----|
----------------------------|-----------------------|
--------------2-------------|-----------------------|
----------------------------|-----------------------|


                                                                        
------------------------|---------------------|------------------7-----|
--8/---7----5-----7--5--|------------------5--|----------5----9-----8h-|
---------------6--------|------------4h-6-----|----4h-6----------------|
------------------------|---------------------|------------------------|
------------------------|---------------------|------------------------|
------------------------|---------------------|------------------------|


                                                                        
------------------------|------------------------|---------------------|
------7-----7--------8h-|------7-----7-----------|------------------5--|
---------9-----9h-6-----|---------9-----9h-6--9--|------------4h-6-----|
------------------------|------------------------|---------------------|
------------------------|------------------------|---------------------|
------------------------|------------------------|---------------------|


                                                                       
-----------------------|-----------------------|----------------------|
----------5------------|----------7---------8h-|------7----5-------5--|
----4h-6-------4h-6----|--7--8---------8-------|--------------6-------|
-----------------------|-----------------------|----------------------|
-----------------------|-----------------------|----------------------|
-----------------------|-----------------------|----------------------|


                                                                       
---------0-----0-----0--|-------------------------|------------------||
------------------------|--------0--2--3----------|------------------||
------4-----3-----2-----|--0--1--------1----------|------------------||
------------------------|--------------2----------|------------------||
------5-----4-----3-----|--------------2----------|------------------||
------------------------|--------------0----------|------------------||
Comments