Misc - Blues Exercises 4 Chords & Tabs

 

Blues Exercises 4 Chords & Tabs

Misc Chords & Tabs

Version: 1 Type: Tab 0 ratings
1 star 2 stars 3 stars 4 stars 5 stars
comments

Blues Exercises 4 Tab

4th of 10

E||-------------------5--|------5-----5-----------|
B||-------------5--7-----|---------7-------8h-10--|
G||----------6-----------|------------------------|
D||----------------------|------------------------|
A||----------------------|------------------------|
E||----------------------|------------------------|


                                                       
--5-----------------------------|---------------------|
----8h5---8h5-------------7---5-|---------------7--5--|
--------7-----7h9---7h5---7---5-|----7----------7--5--|
------------------------7---7---|---------------------|
--------------------------------|---------------------|
--------------------------------|---------------------|


                                                   
----------------------|--7-----5--7/-9------------|
----------------5--7--|-----7-----------10--7-----|
-------------6--------|------------------------9/-|
----7-----------------|---------------------------|
----------------------|---------------------------|
----------------------|---------------------------|


                                         
-----------------12---------------------|
------10--12h14------12h14--12h10-12-10-|
--11------------------------------------|
----------------------------------------|
----------------------------------------|
----------------------------------------|

[ Tab from: http://www.guitartabs.cc/tabs/m/misc/blues_exercises_4_tab.html ]
                                                                  
----------------------10--12------|----------------------14------|
----10--10--13h15-15----------13--|--12h-14------12--14------14--|
----------------------------------|------------------------------|
----------------------------------|------------------------------|
----------------------------------|------------------------------|
----------------------------------|------------------------------|


                                                                      
--12--14--17--17--17--14--------------|------------------------------|
-------------------------17-14--------|------------17--15--13--------|
-------------------------------16-14--|----14--17--------------14----|
--------------------------------------|------------------------------|
--------------------------------------|------------------------------|
--------------------------------------|------------------------------|


                                                      
---------10----------------10---------------10----10-|
--13h15------13--10-13h15------13--10-13h15----13----|
-----------------------------------------------------|
-----------------------------------------------------|
-----------------------------------------------------|
-----------------------------------------------------|


                                      
--12--------------------------------||
------13--10--------10-8------------||
--------------12h14-------9~-------*||
-----------------------------------*||
------------------------------------||
------------------------------------||
Comments