Misc - Blues Exercises 3 Chords & Tabs

 

Blues Exercises 3 Chords & Tabs

Misc Chords & Tabs

Version: 1 Type: Tab 0 ratings
1 star 2 stars 3 stars 4 stars 5 stars
comments

Blues Exercises 3 Tab

3 of 10

E||-----------------------|----------8b----------------|
B||-----------------------|--10--10-----10~------------|
G||-----------------------|----------------------------|
D||--7--7~-----10--7------|----------------------------|
A||-----------------------|-------------------7--10----|
E||-----------------------|----------------------------|


                                                        
--------------------------|--8b------------------------|
----------------------10--|-----10--8--10~-------------|
--------------------------|----------------------------|
--7----7--7--10--7--------|-------------------------7--|
--------------------------|------------------7--10-----|
--------------------------|----------------------------|

[ Tab from: http://www.guitartabs.cc/tabs/m/misc/blues_exercises_3_tab.html ]
                                                          
--------------------------|--------8--10--10b-10--8b-----|
--------------------------|----10--------------------10~-|
------7--9--7~------------|------------------------------|
--10---------------10--7--|------------------------------|
--------------------------|------------------------------|
--------------------------|------------------------------|


                                                        
--------------------------|----------------------------|
------10--8---------------|----------------------------|
-------------9--7---------|-------------------------7--|
-------------------10b-7--|------------------7--10-----|
--------------------------|-----------7--10------------|
--------------------------|----8--10-------------------|


                                                      
----------------------|------------8--10b-10--8b-----|
-----8----------------|-----8--10----------------10~-|
--9-----9--9~---------|--9---------------------------|
----------------------|------------------------------|
----------------------|------------------------------|
----------------------|------------------------------|


                                                     
-------------------------|-------------------------||
------10--8-----8--------|-------------------------||
-------------9-----9--7--|------------------------*||
-------------------------|--10b-7-----------------*||
-------------------------|---------10--7~----------||
-------------------------|-------------------------||
Comments