Misc - Blues Exercises 1 Chords & Tabs

 

Blues Exercises 1 Chords & Tabs

Misc Chords & Tabs

Version: 1 Type: Tab 0 ratings
1 star 2 stars 3 stars 4 stars 5 stars
comments

Blues Exercises 1 Tab

This is the first of 10 Blues exercises I am going to submit.

E||--------------------|---------------------------------|
B||----------------12/-|--14--12--10--12-----------------|
G||--------------------|------------------11/-12--9------|
D||--------------------|---------------------------------|
A||--------------------|---------------------------------|
E||--------------------|---------------------------------|


                                                         
-------------------------------|------------------------|
----------5--7--8h-7--5-----5~-|------------8h-7h-5-----|
----4/-6-----------------6-----|---------------------6--|
-------------------------------|------------------------|
-------------------------------|------------------------|
-------------------------------|------------------------|


                                                      
-------------------|---------------------------------|
--5~---------------|--14--12--10--12-----------------|
-------------------|------------------11h-12--9------|
-------------------|---------------------------------|
-------------------|---------------------------------|
-------------------|---------------------------------|


                                                                         
---------------------------|------------------------|-------------------|
----8h-7h-5-----8----7--5~-|------------8h-7h-5-----|--5~---------------|
-------------6-------------|---------------------6--|-------------------|
---------------------------|------------------------|-------------------|
---------------------------|------------------------|-------------------|
---------------------------|------------------------|-------------------|


                                                               
----------------------------|----------------7--6--5----------|
--------7-------------------|----8h-7h-5--------------8-7-5---|
--7h-8-----7h-8-------------|-------------6-----------------6-|
-----------------9----------|---------------------------------|
----------------------------|---------------------------------|
----------------------------|---------------------------------|

[ Tab from: http://www.guitartabs.cc/tabs/m/misc/blues_exercises_1_tab.html ]
                                                      
-----0-----0-----0-----0--|-------3--2--------2------|
--5-----3-----2-----1-----|--0----3--2--------2--12/-|
--------------------------|-------3--2--------2------|
--------------------------|----------1-----1---------|
--------------0-----1-----|--2----------2------------|
--0-----4-----------------|--------------------------|


                                                                  
---------------------------------|-------------------------------|
--14--12--10--12-----------------|----------5--7--8h-7--5-----5~-|
------------------11/-12--9~-----|----4/-6-----------------6-----|
---------------------------------|-------------------------------|
---------------------------------|-------------------------------|
---------------------------------|-------------------------------|


                                             
------------------------|-------------------|
------------8h-7h-5-----|--5~---------------|
---------------------6--|-------------------|
------------------------|-------------------|
------------------------|-------------------|
------------------------|-------------------|


                                                              
---------------------------------|---------------------------|
--14--12--10--12-----------------|----8h-7h-5-----8----7--5~-|
------------------11h-12--9------|-------------6-------------|
---------------------------------|---------------------------|
---------------------------------|---------------------------|
---------------------------------|---------------------------|


                                                                          
------------------------|-------------------|----------------------------|
------------8h-7h-5-----|--5~---------------|--------7-------------------|
---------------------6--|-------------------|--7h-8-----7h-8-------------|
------------------------|-------------------|-----------------9----------|
------------------------|-------------------|----------------------------|
------------------------|-------------------|----------------------------|


                                                             
----------------7--6--5----------|-----0-----0-----0-----0--|
----8h-7h-5--------------8-7-5---|--5~----3-----2-----1-----|
-------------6-----------------6-|--------------------------|
---------------------------------|--------------------------|
---------------------------------|--------------0-----1-----|
---------------------------------|--0~----4-----------------|


                       
-------8--7----------||
--0----8--7----------||
-------8--7----------||
-------7--6----------||
--2------------------||
---------------------||

slash_2k4@hotmail.com
Comments