Misc - Blues Doodle Chords & Tabs

 

Blues Doodle Chords & Tabs

Misc Chords & Tabs

Version: 1 Type: Tab 1 rating
1 star 2 stars 3 stars 4 stars 5 stars
comments

Blues Doodle Tab


This is a little blues thing. If you have any questions, 
feel fre to mail me at robert_Afs@hotmail.com.
This is my first tab here at guitartabs.cc

-Robert Wikstrand-


----------------------------------------------------------------------
----------------------------------------------------------------------
----------------------------------------2-5-2-----------2-5-2---------
--------2-5-2-----------2-5-2-------2-5-------5-2---2-5-------5-------
----2-5-------5-2---2-5-------5-2-3---------------3-------------2-----
--3---------------3---------------------------------------------------

[ Tab from: http://www.guitartabs.cc/tabs/m/misc/blues_doodle_tab.html ]
----------------------------------------------------------------------
----------------------------------------------------------------------
----------------------------------------4-7-4-----------2-5-2---------
--------2-5-2-----------2-5-2-------4-7-------7-4---2-5-------5-2-----
----2-5-------5-2---2-5-------5-2-5---------------3-------------------
--3---------------3---------------------------------------------------


----------------------------------------------------------------------
----------------------------------------------------------------------
----------------------------------------------------------------------
----------0-0-2-4s5---------------------------------------------------
----2-3-4-------------------------------------------------------------
--3-----------------3------------------------------------------------- 


Comments