Misc - Blue Sun Chords & Tabs

 

Blue Sun Chords & Tabs

Misc Chords & Tabs

Version: 1 Type: Tab 0 ratings
1 star 2 stars 3 stars 4 stars 5 stars
comments

Blue Sun Tab

Song: Blue Sun
Drop D- tuning

/=Slide
*=Hold note out
Clean or Distorted

Intro: x4

E---------------------------------------------------------------------------------------------------------
B---------------------------------------------------------------------------------------------------------
G---------------------------------------------------------------------------------------------------------
D--5---5------7---7---10----------------------------------------------------------------------------------
A--3---3------5---5---8---10--8--7--8--0------------------------------------------------------------------
D--3---3------5---5---8-----------------------------------------------------------------------------------

Verse: x2

E----------------------------------------------------------------------------------------------------------
B---------------------------------------------------------------------------------------------------------
G---------------------------------------------------------------------------------------------------------
D---------------------------------------------------------------------------------------------------------
A----5---5---5---5---7---7---7---7---3---3---3---3--------3------5----------------------------------------
D--0---0---0---0---0---0---0---0---0---0---0---0-------3------5-------------------------------------------

Chorus: x4

E---------------------------------------------------------------------------------------------------------
B---------------------------------------------------------------------------------------------------------
G---------------------------------------------------------------------------------------------------------
D--5--5--5--5--5--5--5--5--/--7--7--7--7--7--7--7--7--/--10-10-10--10-10-10--10-10------/---------------------
A--3--3--3--3--3--3--3--3--/--5--5--5--5--5--5--5--5--/--8--8---8---8---8---8---8---8---/-----------------
D--3--3--3--3--3--3--3--3--/--5--5--5--5--5--5--5--5--/--8--8---8---8---8---8----8--8---/-----------------                                                                                   



Bridge: x2
Palm muted
[ Tab from: http://www.guitartabs.cc/tabs/m/misc/blue_sun_tab.html ]
E---------------------------------------------------------------------------------------------------------
B---------------------------------------------------------------------------------------------------------
G---------------------------------------------------------------------------------------------------------
D--5--5--5--5--5--5--5--5--/--7--7--7--7--7--7--7--7--/-10--10-10--10--10--10---10-10---/-----------------
A--3--3--3--3--3--3--3--3--/--5--5--5--5--5--5--5--5--/--8---8--8---8---8---8---8---8---/-----------------
D--3--3--3--3--3--3--3--3--/--5--5--5--5--5--5--5--5--/--8---8--8---8---8---8---8---8---/-----------------                                                                                                                                     
   
Chorus: x4

E---------------------------------------------------------------------------------------------------------
B---------------------------------------------------------------------------------------------------------
G---------------------------------------------------------------------------------------------------------
D--5--5--5--5--5--5--5--5--/--7--7--7--7--7--7--7--7--/--10--10--10----10--10--10---10----10-----/--------
A--3--3--3--3--3--3--3--3--/--5--5--5--5--5--5--5--5--/--8---8----8----8----8---8----8----8------/--------
D--3--3--3--3--3--3--3--3--/--5--5--5--5--5--5--5--5--/--8---8----8----8----8---8----8----8------/--------                                                                             
Outro:

E---------------------------------------------------------------------------------------------------------
B---------------------------------------------------------------------------------------------------------
G---------------------------------------------------------------------------------------------------------
D---------------------------------------------------------------------------------------------------------
A--10-8-7-8--10-8-7-8-10-8-7-8****------------------------------------------------------------------------
D---------------------------------------------------------------------------------------------------------
 This is my song so have fun
Comments