Misc - Bass Arpeggios Chords & Tabs

 

Bass Arpeggios Chords & Tabs

Misc Chords & Tabs

Version: 1 Type: Bass Tab 0 ratings
1 star 2 stars 3 stars 4 stars 5 stars
comments

Bass Arpeggios Bass Tab

   
Key of C
  C         F         G
|---------|---------|---------|
|---2-5-2-|---------|---------|
|-3-------|---0-3-0-|---2-5-2-|
|---------|-1-------|-3-------|

Key of G
  G         C         D
|---------|---------|---------|
|---------|---2-5-2-|---4-7-4-|
|---2-5-2-|-3-------|-5-------|
|-3-------|---------|---------|
[ Tab from: http://www.guitartabs.cc/tabs/m/misc/bass_arpeggios_btab.html ]
Key of D
  D         G         A
|---------|---------|---------|
|---4-7-4-|---------|---------|
|-5-------|---2-5-2-|---4-7-4-|
|---------|-3-------|-5-------|

Key of A
  A         D         E
|---------|---------|---------|
|---------|---4-7-4-|---------|
|---4-7-4-|-5-------|-----2---|
|-5-------|---------|-0-4---4-|

Key of E
  E         A         B
|---------|---------|---------|
|---------|---------|---1-4-1-|
|-----2---|---4-7-4-|-2-------|
|-0-4---4-|-5-------|---------|
Comments