Misc - Awesome Western Solo Chords & Tabs

 

Awesome Western Solo Chords & Tabs

Misc Chords & Tabs

Version: 1 Type: Tab 4 ratings
1 star 2 stars 3 stars 4 stars 5 stars
comments

Awesome Western Solo Tab

this is DOGWOOD – Grease Intro
-------------------------------------------
--3--5--7--10--10--12--10--7--3--
-------------------------------------------
-------------------------------------------
-------------------------------------------
-------------------------------------------

-------------------------------------------
--3--7--7--5--3--5---------------------
-------------------------------------------
-------------------------------------------
-------------------------------------------
-------------------------------------------

-------------------------------------------
--3--5--7--10--10--12--10--7--3--
-------------------------------------------
-------------------------------------------
-------------------------------------------
-------------------------------------------

-------------------------------------------
--3--7--7--5--5--3---------------------
-------------------------------------------
-------------------------------------------
-------------------------------------------
-------------------------------------------
[ Tab from: http://www.guitartabs.cc/tabs/m/misc/awesome_western_solo_tab.html ]
and heres my seperate version (its not much different i think
its a little better.  sounds sickest with high distortion and sustain) 
-------------------------------------------
--3--5--7--10--10--12--10--7--7--
-------------------------------------------
-------------------------------------------
-------------------------------------------
-------------------------------------------

-------------------------------------------
--3--5--7--7--7--5--3--5-------------
-------------------------------------------
-------------------------------------------
-------------------------------------------
-------------------------------------------

-------------------------------------------
--3--5--7--10--10--12--10--7--7--
-------------------------------------------
-------------------------------------------
-------------------------------------------
-------------------------------------------

-------------------------------------------
--3--5--7--7--7--5--5--3-------------
-------------------------------------------
-------------------------------------------
-------------------------------------------
-------------------------------------------



Comments