Misc - Away In A Manger Chords & Tabs

 

Away In A Manger Chords & Tabs

Misc Chords & Tabs

Version: 1 Type: Tab 0 ratings
1 star 2 stars 3 stars 4 stars 5 stars
comments

Away In A Manger Tab

  
--3-3-1-0-0-----1-----0-3-3-----3-3-0---------------
--1-1-----1-3-1-1-0---1-0-0-----0-3-1---------------
--0-0-----0-----2---2-0-0-0-----0-0-0---------------
--2-2-----2-----3-----2-0-0-2-0-0-0-2-0-------------
--3-3-----3-----------3-2-2-----2---3-1-------------
------------------------3-3-----3-----0-------------

[ Tab from: http://www.guitartabs.cc/tabs/m/misc/away_in_a_manger_tab.html ]
--3-3-1-0-0-----1-----0--1-1-0-0----------0---------
--1-1-----1-3-1-1-0---1--0-0--3-3-1-3---0-1---------
--0-0-----0-----2---2-0--0-0----------2---0---------
--2-2-----2-----3-----2-------------------2---------
--3-3-----3-----------3-------------------3---------
----------------------------------------------------


This is a song where you have to pick and do the rythym at the same
so its kindof rough if your not used to it, great for the holidays,
just play it through and youll figure out the speed.


Comments