Misc - Area Code Outer Space Chords & Tabs

 

Area Code Outer Space Chords & Tabs

Misc Chords & Tabs

Version: 1 Type: Tab 0 ratings
1 star 2 stars 3 stars 4 stars 5 stars
comments

Area Code Outer Space Tab

   
for lead jus improvise with G-major/E-natural minor scale

intro paly while slowly fading volume

e|-2-5-2-3-2-5-2-3-2-5-3-5|
B|------------------------|
G|------------------------|
D|------------------------|
A|------------------------|
E|------------------------|

  when volume is completely faded then turn it to the max

e|----------------------------------|
B|----------------------------------|
G||---------------------------------|
D|-12-12-0-10-10-0-9-9-7-7-0-5-5-0-4|
A|-10-10-0-8--8--0-7-7-5-5-0-3-3-0-2|
E|----------------------------------|



[ Tab from: http://www.guitartabs.cc/tabs/m/misc/area_code_outer_space_tab.html ]
rythm
e|----------------------
b|----------------------
g|----------------------
d|-4-4-0-2-2-0-4-4-0----
a|-2-2-0-0-0-0-2-2-0-2-2    play x5
e|-------------------0-0

    prechorus
e|------------------
b|------------------
g|------------------
d|------------------
a|-7-7-0-5-5-----2-2
e|-5-5-0-3-3-3-2-0-0

chourus

E--------
b--------
g--------   x3
d-5-4-2--
a-3-2-0-2
e-------0

Chours out

e-----------------0-2
b-------------0-1-0-1
g---------0-2-0-2----
d-----0-2-0-2--------
a-0-2-0-2------------
e-0-2----------------


outro

E----------------------------
b----------------------------
g----------------------------
d-0-5-7-0-5-7-0-5-7-0-5-7-2--
a-------------------------0-2
e---------------------------0
Comments