Misc - Apendix Blues Chords & Tabs

 

Apendix Blues Chords & Tabs

Misc Chords & Tabs

Version: 1 Type: Tab 0 ratings
1 star 2 stars 3 stars 4 stars 5 stars
comments

Apendix Blues Tab

#----------------------------------PLEASE NOTE---------------------------------#
#This file is the author's own work and represents their interpretation of the #
#song. You may only use this file for private study, scholarship, or research. #
#------------------------------------------------------------------------------#



 Apendix Blues
=================

This is a typical blues. There are no chords used but when
played slow and with a good groove it sounds pretty cool.
I think it's quite easy to play. But remember to keep the rythm
and damp the strings. Otherwise you won't get that typical blues
sound.

Structure:
 basic pattern (play 3x)
   1st pattern (play 2x)
 basic pattern (play 3x)
   2nd pattern (play 2x)
 basic pattern (play 3x)
   3rd pattern (play 2x)
 final pattern (play 1x)

All patterns are tabed twice to show how they belong together.
You can change the order of the patterns if you want. They have
all the same length.

Symbols: ~ vibrato

This is the basic pattern. Start with that to get the rythm. (play it slow)
E ---|-------------------------|-------------------------|----
B ---|----------------8~--10---|----------------8~--10---|----
G -9-|--9-9---9-9---9--------9-|--9-9---9-9---9--------9-|--9-
D ---|-------------------------|-------------------------|----
A ---|-------------------------|-------------------------|----
E ---|-------------------------|-------------------------|----
[ Tab from: http://www.guitartabs.cc/tabs/m/misc/apendix_blues_tab.html ]
1st pattern:
E ---|----------------------------|----------------------------|----
B ---|----8---8-10---10-11-10-8---|----8---8-10---10-11-10-8---|----
G -9-|--9-----------------------9-|--9-----------------------9-|--9-
D ---|----------------------------|----------------------------|----
A ---|----------------------------|----------------------------|----
E ---|----------------------------|----------------------------|----

Play the basic pattern.

2nd pattern:
E ---|-----------------------------|-----------------------------|----
B ---|----8-8-10-11~--11-10-10-8---|----8-8-10-11~--11-10-10-8---|----
G -9-|--9------------------------9-|--9------------------------9-|--9-
D ---|-----------------------------|-----------------------------|----
A ---|-----------------------------|-----------------------------|----
E ---|-----------------------------|-----------------------------|----

Play basic pattern again.

3rd pattern:
E ---|---------8-9~---9-8--------|---------8-9~---9-8--------|----
B ---|----8-11------------11-8---|----8-11------------11-8---|----
G -9-|--9----------------------9-|--9----------------------9-|--9-
D ---|---------------------------|---------------------------|----
A ---|---------------------------|---------------------------|----
E ---|---------------------------|---------------------------|----

Final pattern:
E ---|---------------------------------------|
B ---|----------------11-10-8~---------------|
G -9-|--9-9---9-9---9------------9(let ring)-|
D ---|---------------------------------------|
A ---|---------------------------------------|
E ---|---------------------------------------|


 - mic.hi@gmx.net -
Comments