Misc - Andy Griffith Show Television Theme Chords & Tabs

 

Andy Griffith Show Television Theme Chords & Tabs

Misc Chords & Tabs

Version: 1 Type: Tab 4 ratings
1 star 2 stars 3 stars 4 stars 5 stars
comments

Andy Griffith Show Television Theme Tab

This it the most acurate way to play the
Andy Griffith Show Theme song. Although
I am missing the last part of it. If you've
heard the song then you know how it goes.

[ Tab from: http://www.guitartabs.cc/tabs/m/misc/andy_griffith_show_television_theme_tab.html ]
e:-----------------------------------------------|
B:-----------------------------------------------|
G:-----------------------------------------------|
D:--------0--7--5-4---0--7--5-4--0---0--4--0-2---|
A:---0-2---------------------------2-------------|
E:-----------------------------------------------|


e:-----------------------------------------------|
B:-----------------------------------------------|
G:--------------------------------------------7--|
D:--------0--7--5-4---0--7--5-4--0--2---------7--|
A:---0-2-------------------------------4--5---5--|
E:-----------------------------------------------|



I hope you'll have as mush fun playing it as I have!
Comments