Misc - America The Beautiful Trio Arrangement Chords & Tabs

 

America The Beautiful Trio Arrangement Chords & Tabs

Misc Chords & Tabs

Version: 1 Type: Tab 0 ratings
1 star 2 stars 3 stars 4 stars 5 stars
comments

America The Beautiful Trio Arrangement Tab

   
WE STAND UNITED 
	
			      Never Forget 9-11-01 

			 George Harrison - deceased 11/30/01
			        but not forgotten	

America The Beatiful - trio arrangement by Brian S.

Sounds great with 3 guitars playing all at once.

Have fun with it.

guitar 1 - Main Guitar
guitar 2 - Harmonizing Guitar
guitar 3 - Rythym (Chords) Guitar

guitar 1 :   
       C                 G              A7 Dm     G         C    
e--------------------------------------------------------------------|
b--/8--8vvv--5-5vvv--/8--8vvv--3--3vvv--5--6--8--/10--10br--8vvvvvvv-|
g--------------------------------------------------------------------|
d--------------------------------------------------------------------|
a--------------------------------------------------------------------|
e--------------------------------------------------------------------|
guitar 2 :
e------------------------------3--3vvv--3--5--7--/8----8br--7vvvvvvv-|
b--/5--5vvv--1-1vvv--/5--5vvv----------------------------------------|
g--------------------------------------------------------------------|
d--------------------------------------------------------------------|
a--------------------------------------------------------------------|
e--------------------------------------------------------------------|

guitar 1
       C                 G                   A7                 D
e----------------------------------------------------------------------|
b--/8--8vvv--5-5vvv--/8--8vvv--3--3vvv--/15--14--15--15bvv------15vvvvv|
g-----------------------------------------------------------14---------|
d----------------------------------------------------------------------|
a----------------------------------------------------------------------|
e----------------------------------------------------------------------|
guitar 2
e------------------------------3--3vvv---------------------------------|
b--/5--5vvv--1-1vvv--/5--5vvv------------------------------------------|
g---------------------------------------/14--14--14--14bvv------14vvvvv|
d-----------------------------------------------------------12---------|
a----------------------------------------------------------------------|
e----------------------------------------------------------------------|
[ Tab from: http://www.guitartabs.cc/tabs/m/misc/america_the_beautiful_trio_arrangement_tab.html ]
guitar 1
       C             G/B      Gsus4            Am7 G7             
e------22bvvv--22b--r22vv--20-20vvv--19-19vvv--20--22--19-----------|
b--20------------------------------------------------------22--20---|
g-------------------------------------------------------------------|
d-------------------------------------------------------------------|
a-------------------------------------------------------------------|
e-------------------------------------------------------------------|
guitar 2
e-------------------------------------------------------------------|
b------15bvvv--15b--r15vv--13-13vvv--12-12vvv--13--15--12-----------|
g--12------------------------------------------------------14--12---|
d-------------------------------------------------------------------|
a-------------------------------------------------------------------|
e-------------------------------------------------------------------|
	
guitar 1	
   C              F                     C    		      Dm        
	              					 *ritard
e--20vvvv\\--/20--20vvv--17-17vvv--/20--20vvv--15-15vvv--15---17vvvvv-|
b---------------------------------------------------------------------|
g---------------------------------------------------------------------|
d---------------------------------------------------------------------|
a---------------------------------------------------------------------|
e---------------------------------------------------------------------|
guitar 2
e---------------------------------------------------------------------|
b--13vvvv\\--/13--13vvv--10-10vvv--/13--13vvv-------------------------|
g----------------------------------------------12-12vvv--12---14vvvvv-|
d---------------------------------------------------------------------|
a---------------------------------------------------------------------|
e---------------------------------------------------------------------|

guitar 1 
    G       	       C	
e--/20vvv--15--/22vvv--20vvvvvvvvvvvvv--|
b---------------------------------------|
g---------------------------------------|
d---------------------------------------|
a---------------------------------------|
e---------------------------------------|
guitar 2
e---------------------------------------|
b---13vvv-------15vvv--20vvvvvvvvvvvvv--|
g----------12---------------------------|
d---------------------------------------|
a---------------------------------------|
e---------------------------------------|

If the chords come out over the wrong notes just play it by ear.

by Brian S.
Comments