Misc - Altered Beast Level Chords & Tabs

 

Altered Beast Level Chords & Tabs

Misc Chords & Tabs

Version: 1 Type: Tab 0 ratings
1 star 2 stars 3 stars 4 stars 5 stars
comments

Altered Beast Level Tab

   
Song: Altered Beast (Level 1)
Band: N/A
Tabbed by: SpRiNgWaFfLe [springwaffle@comcast.net]

"RISE FROM YOUR GRAVE!"

e------------3-1-------
b-----3--1-3-------1-3-
g-0-0------------------
d-0-0------------------
a----------------------
e----------------------

e-------------3-1------------------------10-8-------6---5-3-1-3-
b---------1-3-------4--1-3----11---10-11-------10-6-------------
g-3--2-3--------------------------------------------------------
d---------------------------------------------------------------
a---------------------------------------------------------------
e---------------------------------------------------------------

e-----------------------------------------------------------------
b-3-4--3-1-----3---1-3--1-------1---3---------1-------------------
g----------3-3------------3-2-2----------0-2---------0------------
d-------------------------------------3---------1--3---3--------0-
a--------------------------------------------------------0--1-3---
e-----------------------------------------------------------------

e------------------------3--6-5---------------------------------
b---------------------4---------------------------------------3-
g---0--3-2--0-----------------------0--3-2--0-------------0-3---
d-1-----------3-1-3-0-------------1-----------3-1-3-0---1-------
a---------------------------------------------------------------
e---------------------------------------------------------------
[ Tab from: http://www.guitartabs.cc/tabs/m/misc/altered_beast_level_tab.html ]
e|---------------------------------|-------3--1----------------------
b|.-3-1-3--------1-1---1----------.|-3-1-3------4-3-1---1-3----------
g|--------0--2-3-----3------0-2-3--|------------------3------2-0---0-  play this whole
d|-----------------------3---------|-----------------------------3---  thing twice
a|.-------------------------------.|---------------------------------
e|---------------------------------|---------------------------------

e|--------------------------------------------------1---1------------|
b|.-1---1-----------3-1-3-1---1---1-4-3-4-3-1-3-1-3---4---4-3-4-3-4-.|
g|----3---3-2-3-2-3---------3---3------------------------------------|
d|-------------------------------------------------------------------|
a|.-----------------------------------------------------------------.|
e|-------------------------------------------------------------------|

e---------6-5-3-1-
b-----------------
g-----------------
d-----------------
a-1-0-1-0---------
e-----------------

e|---------------------------------|-------3--1----------------------
b|.-3-1-3--------1-1---1----------.|-3-1-3------4-3-1---1-3----------
g|--------0--2-3-----3------0-2-3--|------------------3------2-0---0-
d|-----------------------3---------|-----------------------------3---
a|.-------------------------------.|---------------------------------
e|---------------------------------|---------------------------------

Back to the beginning. Repeat as many times as you like.
Comments