Misc - Allstarjlws Song Chords & Tabs

 

Allstarjlws Song Chords & Tabs

Misc Chords & Tabs

Version: 1 Type: Tab 0 ratings
1 star 2 stars 3 stars 4 stars 5 stars
comments

Allstarjlws Song Tab

Song Tablature
Drop D Tuning: DADGBE  Switch To Bridge Pickup


Heavy Distortion

Intro   (Play 2 times)
P.M............................
e>----------------------------------------------------------------------
B>----------------------------------------------------------------------
G>----------------------------------------------------------------------
D>-0000--0000--5--0000--0000--3-----------------------------------------
A>-0000--0000--5--0000--0000--3-----------------------------------------
E>-0000--0000--5--0000--0000--3-----------------------------------------
[ Tab from: http://www.guitartabs.cc/tabs/m/misc/allstarjlws_song_tab.html ]
Riff A  (Play 4 times)   This riff is also the chorus
e>----------------------------------------------------------------------
B>----------------------------------------------------------------------
G>----------------------------------------------------------------------
D>-0000--3--00--5-000--3--2--0------------------------------------------
A>-0000--3--00--5-000--3--2--0------------------------------------------
E>-0000--3--00--5-000--3--2--0------------------------------------------

Verse
e>----------------------------------------------------------------------
B>----------------------------------------------------------------------
G>----------------------------------------------------------------------
D>----------------------------------------------------------------------
A>-0000--3--00--5----3--2-----------------------------------------------
E>-0000--3--00--5----3--2-----------------------------------------------

Comments