Misc - Acoustical Northern Lights Chords & Tabs

 

Acoustical Northern Lights Chords & Tabs

Misc Chords & Tabs

Version: 1 Type: Tab 0 ratings
1 star 2 stars 3 stars 4 stars 5 stars
comments

Acoustical Northern Lights Tab

   
This is a song inspired by the Northern Lights in Northern Minnesota.  It is co-written by c00p3o and Nuros.  

A little info:
e-eighth note
q-quarter note
h-half note
s-sixteenth note
t-thirty second note

Well, enjoy, it is a smooth, fun song to play.

         e  q  h  e      e  e q  h      e e  h  e     t t t t t         
E---||---------------||-----1h3-----||---------------------------||-----
B---||---1-----0--1--||--3-------5--||--3h5--1--------0h1h3p1p0--||-----
G---||*-----2--0-----||----------0--||--0----0-------------------||-----
D---||*--------------||-----3-------||---------------------------||-----
A---||---0--------3--||--2-------3--||--2----0--0--2--3----------||-----
E---||---------3-----||-------------||---------------------------||-----
                                                                        

    h     e h            e  e  e  e  e  e  h      t  t  e  e  e  e      
E--------------------||-----------------------||------------------------
B--------------------||--0--------0--------1--||-----1--0--------0------
G---0-----0h2--------||--------0--------0-----||--------------0---------
D---0----------------||--------------2--------||--2---------------------
A---------0----------||-----2-----2--------3--||-----------2-----2------
E---3--0-------------||--0--------------------||--------0---------------
                                                                        

    e  e      h  e  e  e  e  e  e      h  s  s q  q  s  s      s  s     
E---------||-----------------------||----------------------||-----------
B---------||--1--0--------0--------||--1-----1/3--3--------||-----3-----
G------0--||-----------0--------0--||----------------------||--0--------
D---2-----||-----------------2-----||-----2-------------4--||-----------
A---------||--3-----2-----2--------||--3----------5--5-----||-----------
E---------||-----0-----------------||----------------------||-----------
                                                                        

    s  s  s  s  s  q  e  s  s  s  s  s      s  s  s  s  q  e      q     
E---------------------r-----------------||-----------------r--||--------
B---------------3-----e-----------1-----||-----------1-----e--||--------
G---0--------0-----0--s--------0-----0--||--------0-----0--s--||--------
D---------4-----------t-----2-----------||-----2-----------t--||--------
A------5-----------------3--------------||--3-----------------||--3-----
E---------------------------------------||--------------------||--------
                                                                        

    s e  e  e  e  e  e      e  e  e  e  e  e  e  e      s s  s  s  s    
E-----------3--------3--||--------0--------0--------||--0h2--------2----
B--------3-----3--------||--3--------3--------3-----||-------3----------
G--------0--------0-----||-----0--------2--------2--||----------2-------
D---2p0-----------------||--------------------------||------------------
A-----------------------||--------------------------||------------------
E--------3--------------||--------------------------||------------------
                                                                        

     s  e  e  e      h  e  q      q  h  q  h  q  s  s  s  s  s  s  s    
E---h3--------r--||-----------||-----------------0--------0--------0----
B-------3-----e--||--3-----0--||--1--0-----1--------1--------1----------
G----------2--s--||--0-----0--||--2--0-----0-----------0--------0-------
D-------------t--||-----2-----||--------2-------------------------------
A----------------||--3--------||--0--2-----3--3-------------------------
E----------------||--------0--||----------------------------------------
                                                                        
[ Tab from: http://www.guitartabs.cc/tabs/m/misc/acoustical_northern_lights_tab.html ]
    s  s  s  s  s  s  s  s  s  s  s  s  s  s  s s  s  s  e  e  e  q     
E---------0----------------------------------------------1--------1-----
B---1--------1-----1--------1--------0--------0h1-----------3-----------
G------2--------2-----2--------2--------2----------2-----------2--------
D------------------------3--------3--------2----------2-----------------
A-----------------------------------------------------------------------
E-----------------------------------------------------------------------
                                                                        

    e  e  e  e  q  e e  e e  h  h  q  h  q  q  h  h  q  h  q  q  q      
E---------3-------------------------------------------------------------
B---3--------3------------------------------1--------------------1------
G------2--------0---------------------0--------0--------0-----0---------
D-----------------------2p0--0--2--2--2-----------2--2--2---------------
A------------------2/3-------2--2--2--3--3--------2--2--3--3------------
E----------------------------3--0--0--------------0--0------------------
                                                                        

    h  q  h  h      q  e  e  e  e  q  e  e  e  e  q  e  h  q  e  h      
E---------------||--------0--------------0------------------------------
B---------------||-----------2--------------2-----------0--------0------
G---------0-----||--------------2--------------2--------1--------1------
D---2--2-----2--||-----2--------------2--------------2--------2---------
A---2--2--3-----||--0--------------0--------------2--------2------------
E---0--0--------||------------------------------------------------------
                                                                        

    e e  q  e e  q  e  e  e  q  e  q  e  q  e  e  e  e  e  e  e  e      
E--------3-------------------0-----0--------0--0-----0--------1---------
B--------3----------------1-----0--1--------------0-----1--------3------
G-----------0h2--------2-----------2--0--------------------2------------
D----------------2--3-----------2--2-----2-----2------------------------
A---2h3-------------------------0-----2--------3--2---------------------
E-------------------------------------0-----------0---------------------
                                                                        

    e  q  e  q  e  q  e  e  q  s  s  w                                  
E------0--2--0--2--0--2--2--0--0--0--0----------------------------------
B------2--3--2--3--2--3--3--2--2--2--2----------------------------------
G---2--2--4--2--4--2--4--4--2--2--2--2----------------------------------
D------2--4--2--4--2--4--4--2--2--2--2----------------------------------
A---------2-----2--0--2--2--0--0--0--0----------------------------------
E---------------------2--2----------------------------------------------
                                                                        



========================================================================
==                       TABLATURE EXPLANATION                        ==
========================================================================

----------                ----------                ----t---
----5h8--- Hammeron       ----(8)--- Ghost          ----6--- Tap
----------                ---------- Note           --------
----5p8--- Pulloff        ----------                --------

----------                ----------                -----p--
----5/8--- Slide Up       -----x---- Dead           -----7-- Pop
----------                ---------- Note           --s-----
----5\8--- Slide Down     ----------                --5----- Slap 

----------                ||------|| Repeat         --------
----5~~~-- Vibrato        ||*----*||                ---5^--- Bend
----------                ||*----*||                --------
----------                ||------||                --------

----------                ----------                --------
-4:------- Time           ----------                --------
-4:------- Signature      ----------                --------
----------                ----------                --------

Rhythm:
  w = whole note            W = dotted whole
  h = half note             H = dotted half
  q = quarter note          Q = dotted quarter
  e = eighth note           E = dotted eighth
  s = sixteenth note        S = dotted sixteenth
  t = 32nd note             T = dotted 32nd
  x = 64th note             X = dotted 64th
  ^ = triplet

========================================================================
==               Created with BUCKET O' TAB for Windows               ==
==                  For more info email gse@his.com                   ==
========================================================================
Comments