Misc - A Nice Arpeggio Chords & Tabs

 

A Nice Arpeggio Chords & Tabs

Misc Chords & Tabs

Version: 1 Type: Tab 5 ratings
1 star 2 stars 3 stars 4 stars 5 stars
comments

A Nice Arpeggio Tab

This is a really nice arpeggio that i made up.  Its great for songwriting.
Played at a moderate pace.


E-------------------------0-----------------------------------------------0--------------------------
B-----------------3-------------3------------3--------------------3------------3-----------3-------
G--------0-----------------------------0--------------------0------------------------0--------------
D-2---------------------------------------------------------------------------------------------------
A-----------------------------------------------------3-----------------------------------------------
E------------------------------------------------------------------------------------------------------

[ Tab from: http://www.guitartabs.cc/tabs/m/misc/a_nice_arpeggio_tab.html ]
E------------------------------------------------------------------------3------------2-------0------
B------------------3------------------------3----------------------3---------3-----------3----------
G------------0------------------------0-----------------------0------------------0------------------
D-----------------------------------------------------------------------------------------------------
A-----------------------------------------------------------------------------------------------------
E--3------------------------2-------------------------0----------------------------------------------


Thats pretty much it, you just continue it like that.
If you have any suggestions, questions, etc. email me at 
british_chick15@hotmail.com
Comments