Misc - A Minor Pentatonic Chords & Tabs

 

A Minor Pentatonic Chords & Tabs

Misc Chords & Tabs

Version: 1 Type: Tab 0 ratings
1 star 2 stars 3 stars 4 stars 5 stars
comments

A Minor Pentatonic Tab

#-----------------------------------------------------------------------------#
#-- File created with Instab - http://www.pconline.com/~smcarey/instab.html --#
#-----------------------------------------------------------------------------#

Author/Artist: Thomas Ulanowski
Title: Scales
Transcribed by: Thomas Ulanowski
Email: board23@hotmail.com

Here is the A Minor Pentatonic Scale... 
Very Useful for improvisation over A Blues... ENJOY...
Any comments, questions, corrections, please email me... 

----------------------3-5-|5-3------------------------------------------------
------------------3-5-----|----5-3--------------------------------------------
--------------2-5---------|--------5-2----------------------------------------
----------2-5-------------|------------5-2------------------------------------
------3-5-----------------|----------------5-3--------------------------------
--3-5---------------------|--------------------5-3----------------------------
                                                                              

----------------------5-8-|-8-5-----------------------------------------------
------------------5-8-----|-----8-5-------------------------------------------
--------------5-7---------|---------7-5---------------------------------------
----------5-7-------------|-------------7-5-----------------------------------
------5-7-----------------|-----------------7-5-------------------------------
--5-8---------------------|---------------------8-5---------------------------
                                                                              
[ Tab from: http://www.guitartabs.cc/tabs/m/misc/a_minor_pentatonic_tab.html ]
--------------------------8-10-|-10-8-----------------------------------------
---------------------8-10------|------10-8------------------------------------
-----------------7-9-----------|-----------9-7--------------------------------
------------7-10---------------|---------------10-7---------------------------
-------7-10--------------------|--------------------10-7----------------------
--8-10-------------------------|-------------------------10-8-----------------
                                                                              

-------------------------------10-12-|-12-10----------------------------------
-------------------------10-13-------|-------13-10----------------------------
--------------------9-12-------------|-------------12-9-----------------------
--------------10-12------------------|------------------12-10-----------------
--------10-12------------------------|------------------------12-10-----------
--10-12------------------------------|------------------------------12-10-----
                                                                              

-------------------------------12-15-|-15-12----------------------------------
-------------------------13-15-------|-------15-13----------------------------
-------------------12-14-------------|-------------14-12----------------------
-------------12-14-------------------|-------------------14-12----------------
-------12-15-------------------------|-------------------------15-12----------
-12-15-------------------------------|-------------------------------15-12----
                                                                              

Comments